Cifra Club

Filho do Deus Vivo

Nívea Soares

Tab de baixo: Principal
[Intro]

G|-----------------------------------------------------------|
D|-----------------------------------------------------------| (2X)
A|4-4--4-4--4-4--7-7--7-7--7-7--0-0--0-0--0-0----------------|
E|---------------------------------------------2-2--2-2--2-2-|

G|-----------------------------------------------------------|
D|-----------------------------------------------------------| (2X)
A|4-4-4-4-4-4-4-4-7-7-7-7-7-7-7-0-0-0-0-0-0-0----------------|
E|-------------------------------------------2-2-2-2-2-2-2-2-|

  Verbo vivo, viveu entre nós...
G|------------------------------------------------------|
D|------------------------------------------------------| (4X)
A|4-4--4-4--4-4--7-7--7-7--7-7--0-0--0-0--0-0--0-0--0-0-|
E|------------------------------------------------------|

  E agora quem dizem que tú és?
G|----------------------------------------------------|
D|----------------------------------------------------|
A|7-7-7-7-7-7-7-7-7-7-7-7-7-9-------------------------|
E|----------------------------7-7-7-7-7-7-7-7-7-7-7-7-|

  Um profeta um agitador qualquer
G|------------------------------------------------|
D|--------------------7---------------------------|
A|5-5-5-5-5-5-5-5-7/9---9-9-9-9-9-7-7-7-7-7-7-7-7-|
E|------------------------------------------------|

  Teu Espírito me revela quem Tu és
G|----------------------------------------------------|
D|----------------------------------------------------|
A|7-7-7-7-7-7-7-7-7-7-7-7-7-9-------------------------|
E|----------------------------7-7-7-7-7-7-7-7-7-7-7-7-|

  O Ungido de Deus
G|------------------------------------------------|
D|--------------------7---------------------------|
A|5-5-5-5-5-5-5-5-7/9---9-9-9-9-9-7-7-7-7-7-7-7-7-|
E|------------------------------------------------|
 
[Refrão]

G|---------------------------------------------------------------------------|
D|---------------------------------------------------------------------------|
A|4-4-4-4-4-4-4-4-4-4-4-----7-7-7-7-7-7-7-7-7--------------------------------|
E|----------------------6-6------------------5-5-5-5-5-5-5-5--2-2-2-2-2-2-2--|

[Refrão (variação)]

G|-----------------------------------------------------------------------|
D|-----------------------------------------------------------------------|
A|4-4-4-4-4-4-4-4-4-4-4-----7-7-7-7-7-7-7-7-7-7/12-12-12-12-12-12-12-12--|
E|----------------------6-6----------------------------------------------|

G|-----------------------------------------------------------------------|
D|-----------------------------------------------------------------------|
A|12/9-9-9-9-9-9-9-9-9-9-9-----------------------------------------------|
E|-----------------------------------------------------------------------|

[Intro]

G|-----------------------------------------------------------|
D|-----------------------------------------------------------| (2X)
A|4-4-4-4-4-4-4-4-7-7-7-7-7-7-7-0-0-0-0-0-0-0----------------|
E|-------------------------------------------2-2-2-2-2-2-2-2-|

[Espontâneo]

G|------------------------------------------------------------------------|
D|------------------------------------------------------------------------|
A|4---7----------7--------4---7---------------4---7---12-------4---7---12-|
E|--------5--------5-7-----------5------5-7-------------------------------|

[Final]

G|-----------------------------------------------------------|
D|-----------------------------------------------------------| (4X)
A|4-4-4-4-4-4-4-4-7-7-7-7-7-7-7-0-0-0-0-0-0-0----------------|
E|-------------------------------------------2-2-2-2-2-2-2-2-|

G|-----------------------------------------------------------|
D|-----------------------------------------------------------| (2X)
A|4-4--4-4--4-4--7-7--7-7--7-7--0-0--0-0--0-0----------------|
E|---------------------------------------------2-2--2-2--2-2-|
exibições 3.022
Composição: Nívea Soares Colaboração e revisão:
  • Raphael Lourenço
  • Marcus Lima

0 comentários

mostrar mais comentários

Conseguiu tocar?

2 tocaram 1 ainda não

Grave um vídeo tocando Filho do Deus Vivo e mande pra gente!

00:00 / 00:00
outros vídeos desta música
repetir qualidade Automático
Outros vídeos desta música
00:00 / 00:00
Automático
OK