Cifra Club

Teu Amor Não Falha

Nívea Soares

Tab de baixo: Principal
Introdução: 
Parte I
G|--------------------------------------------------------|
D|--------------------------------------------------------|
A|------------------3-3-3-3h5-----------------------------|
E|-\5-5-5-5-1-1-1-1-----------3-3-3-3---------------------|

Parte II
G|--------------------------------------------------------|
D|--------------------------------------------------------|
A|-----------------3-3-3-3h5------------------------------|
E|-5-5-5-5-1-1-1-1-----------3-3-3-3----------------------|

Parte III
G|--------------------------------------------------------|
D|--------------------------------------------------------|
A|------------------------------3\10-10-10-14-14-14-15-15-|
E|-1-1-1-1-1-5-5-5-5-5-3-3-3-3-3--------------------------|

G|--------------------------------------------------------|
D|--------------------------------------------------------|
A|--------------------------------------------------------|
E|-1-1-1-1-1-1-5-5-5-5-5-5-3-3-3-3-3-3-5/-----------------|

“Nada vai me separar...” <- Apenas guitarra.

“Tu és o mesmo pra sempre...” 2x

G|--------------------------------------------------------|
D|--------------------------------------------------------|
A|---3---5------------------------------------------------|
E|-1---3--------------------------------------------------|

“Se o mar se enfurecer...”

G|--------------------------------------------------------|
D|---------------5----------4\5---------------------------|
A|---3---5--5--7---7\8--3---------------------------------|
E|-1---3------------------3-------------------------------|

“Teu amor não falha...” 2x

G|--------------------------------------------------------|
D|--------------------------------------------------------|
A|--------------------------------------------------------|
E|-1-1-1-1-1-1-5-5-5-5-5-5-3-3-3-3-3-3--------------------|





“Se o vento é forte...”

G|--------------------------------------------------------|
D|------------------------------2-2-----------------------|
A|------------------3-3-3-5-5-5-----2-2-2--2h3-2h3--------|
E|-5-5-5-5--1-1-1-1--------------------------------3------|

G|--------------------------------------------------------|
D|--------------------------------------------------------|
A|------------------3-3-3-3h5-----------------------------|
E|-5-5-5-5-1-1-1-1-----------3-3-3-3----------------------|


G|--------------------------------------------------------|
D|------------------------------2-2-----------------------|
A|------------------3-3-3-5-5-5-----2-2-2--2h3-2h3--------|
E|-5-5-5-5--1-1-1-1--------------------------------3------|

G|--------------------------------------------------------|
D|--------------------------------------------------------|
A|------------------3-3-3-3h5-----------------------------|
E|-5-5-5-5-1-1-1-1-----------3-3-3-3----------------------|

“Tu és o mesmo pra sempre...” 

G|--------------------------------------------------------|
D|--------------------------------------------------------|
A|---------3-3-3-3---------5-5-5-5------------------------|
E|-1-1-1-1---------3-3-3-3---------0----------------------|

G|--------------------------------------------------------|
D|-----------------------------------5--------------------|
A|---------3-3-3-3---------5-5-5-5-7---7\8-8-8-8----------|
E|-1-1-1-1---------3-3-3-3--------------------------------|

G|--------------------------------------------------------|
D|--------------------------------------------------------|
A|-3-3-3-3---------5-5-5-5--------------------------------|
E|---------3-3-3-3---------0------------------------------|

G|--------------------------------------------------------|
D|-------------------------5-5-5-5------------------------|
A|---------3-3-3-3----------------------------------------|
E|-1-1-1-1---------3-3-3-3--------------------------------|




“Tu és o mesmo pra sempre...” 

G|--------------------------------------------------------|
D|--------------------------------------------------------|
A|---------3-3-3-3---------5-5-5-5------------------------|
E|-1-1-1-1---------3-3-3-3---------0----------------------|

G|--------------------------------------------------------|
D|-----------------------------------5--------------------|
A|---------3-3-3-3---------5-5-5-5-7---7\8-8-7-7-5-5------|
E|-1-1-1-1---------3-3-3-3---------------------------3-3--|

G|--------------------------------------------------------|
D|--------------------------------------------------------|
A|-3-3-3-3h5---------5-5-5-5------------------------------|
E|-----------3-3-3-3---------0----------------------------|

G|--------------------------------------------------------|
D|--------------------------------------------------------|
A|---------3-3-3-3----------------------------------------|
E|-1-1-1-1---------3-3-3-3-3-3-3-3-3----------------------|

G|--------------------------------------------------------|
D|--------------------------------------------------------|
A|------------------------------3\10-10-10-14-14-14-15-15-|
E|-1-1-1-1-1-5-5-5-5-5-3-3-3-3-3--------------------------|

G|--------------------------------------------------------|
D|--------------------------------------------------------|
A|--------------------------------------------------------|
E|-1-1-1-1-1-1-5-5-5-5-5-5-3-3-3-3-3-3--------------------|

“Fazes que tudo, coopere para o meu bem” 2x apenas guitarra
Na terceira entra o baixo

G|--------------------------------------------------------|
D|----7------10-12-----8h9-9h10-9-------------------------|
A|-\8---8\12-------10-------------10----------------------|
E|--------------------------------------------------------|

G|--------------------------------------------------------|
D|----7------10-12-----8h9-9h10-9-------------------------|
A|-\8---8\12-------10-------------10----------------------|
E|--------------------------------------------------------|

2x
G|--------------------------------------------------------|
D|--------------------------------------------------------|
A|--------------------------------------------------------|
E|-1-1-1-1-1-1-5-5-5-5-5-5-3-3-3-3-3-3--------------------|

“Tu és o mesmo pra sempre...” 

G|--------------------------------------------------------|
D|-----------------------------------5--------------------|
A|---------3-3-3-3---------5-5-5-5-7---7\8-8-8-8----------|
E|-1-1-1-1---------3-3-3-3--------------------------------|

G|--------------------------------------------------------|
D|--------------------------------------------------------|
A|-3-3-3-3---------5-5-5-5--------------------------------|
E|---------3-3-3-3---------0------------------------------|

G|--------------------------------------------------------|
D|--------------------------------------------------------|
A|---------3-3-3-3---------5-5-5-5------------------------|
E|-1-1-1-1---------3-3-3-3---------0----------------------| 

G|--------------------------------------------------------|
D|--------------------------------------------------------|
A|---------3-3-3-3----------------------------------------|
E|-1-1-1-1---------3-3-3-3-3-3-3-3-3----------------------|

G|--------------------------------------------------------|
D|--------------------------------------------------------|
A|--------------------------------------------------------|
E|-1-1-1-1-1-1-5-5-5-5-5-5-3-3-3-3-3-3--------------------|
exibições 21.530
Composição: Anthony Skinner / Chris McClarney / Nívea Soares Colaboração e revisão:
  • Victor Guimaraes.

0 comentários

mostrar mais comentários

Conseguiu tocar?

11 tocaram 1 ainda não

Grave um vídeo tocando Teu Amor Não Falha e mande pra gente!

00:00 / 00:00
outros vídeos desta música
repetir qualidade Automático
Outros vídeos desta música
00:00 / 00:00
Automático
OK