Cifra Club

Aprenda

Sunday morning

No Doubt

Cifra: Principal (violão e guitarra)
Tom: A
*--------- =harmonics

(bass intro)
        *---------                                   repeat x 4
                              E                       C#m
e-----------12-----|------------------------------------------|
B----12-----------|-------------------------------------------|
G------------------|--9---9---9---9----9----9-----9-----9--|
D------------------|--9---9---9---9----11---11---11---11--|
A------------------|--7---7---7---7----11---11---11---11--|
E------------------|---------------------9----9-----9-----9--|

verse (raggae chords):
      E             C#m
e----7----7----9----9----
B---9-----9----9----9---
G--------------9-----9---
D-------------11----11---
A-------------------------
E-------------------------
    sappy pathetic little me....

A                   C#m                            e----------------------------------------------------
you had me on my knees....                B----------------------------------------------------
                                                       G----------------------------------------------------
                                                       D----------------------------------------------------
                                                       A-------2---2-------------0--2--4--2--4--2-------
                                                       E----0-------------4--4--------------------------4--

intro to chorus and bridge:

A      B      A     B      A

chorus:
      C#m          E       A       C#m
e---------------------------------------------------------------------------------------------------
B---------------------------------------------------------------------------------------------------
G----9-----9----9-----9----9----9----9----9-----------------------------9-----9----9-----9----
D---11---11---11---11----9----9----9----9----7----7----7----7---=---11---11---11---11----
A---11---11---11---11----7----7----7----7----7----7----7----7-----=-11---11---11---11----
E----9----9-----9----9--------------------------5----5----5-----5-------9-----9----9-----9----
      you came in with the breeze... on sunday morning sure have changed since yesterday

C#m         B    A            C#m
without any warning/ i thought i knew you

fill:
e---------------------------------------------------------
B--------------------------------------------------------
G----9--9----8--8----6--6----------6-----------------
D-------------------------------9----------9----7---6--
A-------------------------------------------------------
E--------------------------------------------------------

bridge:
               C#m              E  F#m A
i know who i am but who are you?

outro:
C#m             E
without a warning...you want me badly/ cannot have me....
Composição de No Doubt
9.655 exibições
    • ½ Tom
    • A
    • Bb
    • B
    • C
    • Db
    • D
    • Eb
    • E
    • F
    • F#
    • G
    • Ab
  • Adicionar à lista

    0 comentários

    Mostrar mais comentários

    Conseguiu tocar?

    0 Tocaram 0 Ainda não

    Grave um vídeo tocando Sunday morning e mande pra gente!

    00:00 / 00:00
    outros vídeos desta música
    repetir qualidade Automático
    Outros vídeos desta música
    00:00 / 00:00
    Automático

    Cifra Club Pro

    Aproveite o Cifra Club com benefícios exclusivos e sem anúncios
    7 dias grátis
    Cifra Club Pro
    Aproveite o Cifra Club com benefícios exclusivos e sem anúncios
    7 dias grátis
    OK