Believers

No Fun At All

Composição de: Henrik Sunvisson / Ingemar Jansson / Jimmie Ohlsson / Krister Johansson / Mikael Danielsson
tom: A Afinação: E A D G B E
E|-------------------------------------------------|
B|-------------------------------------------------|
G|-------------------------------------------------|
D|-------------------------------------------------|
A|----8-10-------6-8--6-6-6-6----------------------|
E|-8-8--------6-6------4-4-4-4---------------------|
   |   4x  | |  2x |


[Pre intro]

E|----------------------------------------------|
B|----------------------------------------------|
G|----------------------------------------------|
D|----------------------------------------------|
A|-6-6-6-6--------------------------------------|
E|-4-4-4-4--------------------------------------|


[Intro main riff]

E|----------------------------------------------|
B|----------------------------------------------|
G|----------------------------------------------|
D|-------------12-12-12-12-13-13-12-12-8--------|
A|-10-10-10-10-10-10-10-10-11-11-10-10-6-10-8---|
E|--8--8--8--8----------------------------8-6---|


[Verse]

E|----------------------------------------------|
B|----------------------------------------------|
G|----------------------------------------------|
D|-------------8-8-8-8--------------------------|
A|-10-10-10-10-6-6-6-6-6-6-6-6--8-8-8-8---------|
E|--8--8--8--8---------4-4-4-4--6-6-6-6---------|


[Pre-Chorus]

E|------------------------------------------------------------|
B|------------------------------------------------------------|
G|------------------------------------------------------------|
D|------------------------------------------------------------|
A|-6-6-6-6-8-8-8-8--10-10-10-10-10-10-10-10--6-6-6-6--8-8-8-8-|
E|-4-4-4-4-6-6-6-6---8--8--8--8--8--8--8--8--4-4-4-4--6-6-6-6-|


[Chorus]

E|---------------------------------------------------------------------|
B|---------------------------------------------------------------------|
G|---------------------------------------------------------------------|
D|-5-5-5-5--3-3-3-3------------------5-5-5-5--3-3-3-3------------------|
A|-3-3-3-3--1-1-1-1-3-3-3-3-3-3-3-3--3-3-3-3--1-1-1-1-3-3-3-3--6-6-6-6-|
E|------------------1-1-1-1-1-1-1-1-------------------1-1-1-1--4-4-4-4-|

E|--------------------------------------------------------------------|
B|--------------------------------------------------------------------|
G|--------------------------------------------------------------------|
D|-5-5-5-5--3-3-3-3-----------------5-5-5-5--3-3-3-3------------------|
A|-3-3-3-3--1-1-1-1-3-3-3-3-3-3-3-3-3-3-3-3--1-1-1-1-3-3-3-3-3-3-3-3--|
E|------------------1-1-1-1-1-1-1-1------------------1-1-1-1-1-1-1-1--|

E|-------------------------------------------------------------|
B|-------------------------------------------------------------|
G|-------------------------------------------------------------|
D|-6-6-6-5--6-6-6-5--6-6-6-6--8-8-8-8--6-6-6-6--8-8-8-8--1-0-| l-|
A|------------------------------------------------------------|
E|------------------------------------------------------------|


[Slow version of main riff]

E|------------------------------------------------------------------------------------------------------|
B|------------------------------------------------------------------------------------------------------|
G|------------------------------------------------------------------------------------------------------|
D|-------------12-12-12-12--13-13-13--12--8-------------------12-12-12-12--13-13-13--12--8----------5-| l-|
A|-10-10-10-10-10-10-10-10--11-11-11--10--6-8--5--10-10-10-10-10-10-10-10--11-11-11--10--6--8-10--5-3-| l-|
E|--8--8--8--8------------------------------6--3---8--8--8--8-------------------------------6--8--3-----|

palm muted part is just chorus, then the last time it goes like this

E|-----------------------------------------------------|
B|-----------------------------------------------------|
G|-----------------------------------------------------|
D|-5-5-5-5--3-3-3-3------------------------------------|
A|-3-3-3-3--1-1-1-1-3-3-3-3--3-3-3-3--5-5-5-5--6-8-----|
E|------------------1-1-1-1--1-1-1-1--3-3-3-3--4-6-----|

the ending is intro main riff just different last part

E|-----------------------------------------------|
B|-----------------------------------------------|
G|-----------------------------------------------|
D|-------------12-12-12-12-13-13-12-12-8---------|
A|-10-10-10-10-10-10-10-10-11-11-10-10-6- 8-8-10-|
E|--8--8--8--8----------------------------6-6--8-|
Página 1 / 1

Letras e título
Acordes e artista

resetar configurações
OK