Cifra Club

Aprenda

Life Size Mirror

No Use For A Name

Cifra: Principal (violão e guitarra)
Tom: C
Intro:
e|-------------------------------------------------------------|
B|-------------------------------------------------------------|
G|-------------------------------------------------------------|
D|---8-8-7-7-5-5---8-8-7-7-5-5---7-7-5-5-3-3-------------------|
A|5-5-----------5-5-----------3-3-----------7-7-8-8-10-10-10-10|
E|-------------------------------------------------------------|

Guitar verse:

e|-----------------------------------|
B|-----------------------------------|
G|-----------------------------------| \  x2
D|----7-----------5----7-------------| /
A|----5---8---3---3----5--8--3---7---|
E|--------6---1-----------6--1---5---|

Chorusy bit:
e|-----------------------------------|
B|-----------------------------------|
G|-----------------------------------|
D|--10-5--7-----3--------------------|
A|---8-3--5--5--1----3-----5---------|
E|-----------3-------1-----3---------|

bridge:
e|--------------------------------------------|
B|--------------------------------------------|
G|---------------------------4-4-4-4-5-5-5-5--|
D|-----7-7-7-7---5-5-5-5-----2-2-2-2-3-3-3-3--|
A|-----5-5-5-5---3-3-3-3----------------------|
E|--------------------------------------------|

e|----------------------------|
B|----------------------------|
G|3-3-2-0---------------------|
D|----------7-7-7-5-5-5-------|
A|----------5-5-5-3-3-3-0----4|
E|-----------------------3--5-|


Order:
intro x 3
verse x 4
chorusy bit x 2
verse x 4
chorusy bit x 2
bridge x 1
chorusy bit x 2

then this bit:
D]-3-3-3-3----------------------------[
A]-1-1-1-1-3-3-3-3-5-5-5-5-2-2-2-2----[
E]---------1-1-1-1-3-3-3-3-0-0-0-0----[

then you play the intro about 4 or so times.
Composição de Tony Sly
5.082 exibições
    • ½ Tom
    • A
    • Bb
    • B
    • C
    • Db
    • D
    • Eb
    • E
    • F
    • F#
    • G
    • Ab
  • Adicionar à lista

    0 comentários

    Mostrar mais comentários

    Conseguiu tocar?

    0 Tocaram 0 Ainda não

    Grave um vídeo tocando Life Size Mirror e mande pra gente!

    00:00 / 00:00
    outros vídeos desta música
    repetir qualidade Automático
    Outros vídeos desta música
    00:00 / 00:00
    Automático

    Cifra Club Pro

    Aproveite o Cifra Club com benefícios exclusivos e sem anúncios
    Cifra Club Pro
    Aproveite o Cifra Club com benefícios exclusivos e sem anúncios
    OK