Cifra Club

Aprenda

Saddest Song

No Use For A Name

Cifra: Principal (violão e guitarra)
Tom: G#
****Intro****
Guitar #1 Strum these chords                      x2
E|--5-----------4------------4------------7--------------|
B|--7-----------4------------4------------7--------------|
G|--8-----------6------------5------------8--------------|
D|--8-----------6------------6------------9--------------|
A|--6-----------4------------6------------9--------------|
E|---------------------------4------------7--------------|

Guitar #2 Sounds they use a slide- sounds the same though
E----------------------------------------------------11--|
B--------------------------------------------------------|
G-8----8-10----11-----13-11-10--11-----10-------------8--|
D---8-------8-----10---------------13-----11--11/13------|
A--------------------------------------------------------|
E--------------------------------------------------------|

****Riff 1****
Guitar #1                             x2     then this
E|--------------------------------------|----------------|
B|--------------------------------------|----------------|
G|--------------------------------------|----------------|
D|-8----9----9----8----6----4----4----3-|---4-4-4-4-4-4--|
A|-6----6----4----4----3----3----2----4-|---2-2-2-1-1-1--|
E|---------------------4----4-----------|----------------|

Guitar #2
E|--------------------------------------|----------------|
B|--------------------------------------|----------------|
G|--------------------------------------|----------------|
D|--------------------------------------|4-4-6/8--3-3-4/6|
A|--------------------------------------|----------------|
E|--------------------------------------|----------------|

****Verse 1****
Whats wrong with everyone theres an panic in their eyes
E|-6----------------------------------2--------------1----
B|-7----------------4-----------------2--------------2----
G|-8----------------4-----------------3--------------1----
D|-8----------------4-----------------4--------------3----
A|-6----------------2-----------------4--------------4----
E|------------------------------------2--------------1----

like others getting close are aliens in disguise
E|--------------------------------------------------------
B|-8----------3-----------------4------6------------------
G|-8----------3-----------------4------6------------------
D|-8----------3-----------------4------6------------------
A|-4----------1-----------------2------4------------------
E|--------------------------------------------------------

They smelt conspiracy on the lips of dearest friends
E|-6---------------------------2--------------------------
B|-7------------4--------------2---------------6----------
G|-8------------4--------------3---------------6----------
D|-8------------4--------------4---------------6----------
A|-6------------2--------------4---------------4----------
E|-----------------------------2--------------------------
  
Reminds me of a time long ago they think its the end of  
E|-6-------------------2----------------------------------
B|-7---------4---------2--------------3------------4------
G|-8---------4---------3--------------3------------4------
D|-8---------4---------4--------------3------------4------
A|-6---------2---------4--------------1------------2------
E|---------------------2----------------------------------

what we all created used to love but now we hate it
E|--------------------------------------------------------
B|--------6-----------3----------------8------6-----------
G|--------6-----------3----------------8------6-----------
D|--------6-----------3----------------8------6-----------
A|--------4-----------1----------------6------4-----------
E|--------------------------------------------------------

life is as simple as the mind it lives in
E|-------------------------------------------------------|
B|-4------------4------------------3---------------------|
G|-4------------4------------------3---------------------|
D|-4------------4------------------3---------------------|
A|-2------------1------------------1---------------------|
E|-------------------------------------------------------|

****Chorus****
The truth is a waste of time when were conditioned to
E|-2-------------1-------------0--------------------------
B|-2-------------2-------------0--------------------------
G|-3-------------1-------------1--------------------------
D|-4-------------3-------------2--------------------------
A|-4-------------4-------------2--------------------------
E|-2-------------1-------------0--------------------------

understand lies are the right way as we watch the
E|--------------------------------------------------------
B|--------------------------------------------------------
G|-8---------5------------3---------------6---------------
D|-8---------6------------4---------------6---------------
A|-6---------6------------4---------------4---------------
E|-----------4------------2-------------------------------

blind leading the blind
E|-------------------------------------------------------|
B|-3-------4---------------------------------------------|
G|-3-------4---------------------------------------------|
D|-3-------4---------------------------------------------|
A|-1-------2---------------------------------------------|
E|-------------------------------------------------------|

****Riff 1****

****Verse #2****

****Chorus****

****Interlude****                                      x4
E|------------------------------------|-------------------
B|-8----------------------------------|--4----4----6----3-
G|-8----------------------------------|--4----5----6----3-
D|-8----------------------------------|--4----6----6----3-
A|-6----------------------------------|--2----6----4----1-
E|------------------------------------|-------4-----------

****Riff 1****

****Ending****
E|---------------------------||
B|---------------------------||
G|-8------------8------4---3-||
D|-8------------8------4---3-||
A|-6------------6------2---1-||
E|---------------------------||
Composição de Tony Sly
4.006 exibições
    • ½ Tom
    • A
    • Bb
    • B
    • C
    • Db
    • D
    • Eb
    • E
    • F
    • F#
    • G
    • Ab
  • Adicionar à lista

    0 comentários

    Mostrar mais comentários

    Conseguiu tocar?

    0 Tocaram 0 Ainda não

    Grave um vídeo tocando Saddest Song e mande pra gente!

    00:00 / 00:00
    outros vídeos desta música
    repetir qualidade Automático
    Outros vídeos desta música
    00:00 / 00:00
    Automático

    Cifra Club Pro

    Aproveite o Cifra Club com benefícios exclusivos e sem anúncios
    Cifra Club Pro
    Aproveite o Cifra Club com benefícios exclusivos e sem anúncios
    OK