Cifra Club

Aprenda

The Daily Grind

No Use For A Name

Cifra: Principal (violão e guitarra)
Tom: C
e-|--------------------------------------------------------------------------
B-|--------------------------------------------------------------------------
G-|--------------------------------------------------------------------------
D-|--------------------------------------------------------------------------
A-|-7-8-9-9-7-10-7-7-9-7-5---7-8-9-9-7-10-7-7-9-7-5---7-8-9-9-7-10-7-7-9-7-5-
E-|------------------------7------------------------7------------------------

e-|--------------------------------------------------------------------------
B-|--------------------------------------------------------------------------
G-|--------------------------------------------------------------------------
D-|--------------------------------------------------------------------------
A-|-7-8-9-9-7-10-7-7-9-7-5---7-8-9-9-7-10-7-7-9-7-5---7-8-9-9-7-10-7-7-9-7-5-
E-|------------------------7------------------------7------------------------

e-|------------------------------------------|
B-|------------------------------------------|
G-|------------------------------------------|
D-|------------------------------------9-9-9-|
A-|-7-8-9-9-7-10-7-7-9-7-5---7-8-9-9-7-------|
E-|------------------------7-----------------|

e-|-----------------------------------------------------------------
B-|-----------------------------------------------------------------
G-|-----------------------------------------------------------------
D-|-9-9-9-9-9-9-9-9-------------------------------------------------
A-|-7-7-7-7-7-7-7-7-5-5-5-5-5-5-5-5-7-7-7-7-7-7-7-7-9-9-9-9-9-9-9-9-
E-|-----------------3-3-3-3-3-3-3-3-5-5-5-5-5-5-5-5-7-7-7-7-7-7-7-7-

e-|-----------------------------------------------------------------|
B-|-----------------------------------------------------------------|
G-|-----------------------------------------------------------------|
D-|-9-9-9-9-9-9-9-9---------------------------------5-5-5-5-5-5-5-5-|
A-|-7-7-7-7-7-7-7-7-5-5-5-5-5-5-5-5-7-7-7-7-7-7-7-7-3-3-3-3-3-3-3-3-|
E-|-----------------3-3-3-3-3-3-3-3-5-5-5-5-5-5-5-5-----------------|

e-|-------------------------------------------------------------
B-|-------------------------------------------------------------
G-|-------------------------------------------------------------
D-|-5-5-5-5-5-5-5-5-5-5-5-5-5-5-5-5-------------9-9-9-9-9-9-7-7-
A-|-3-3-3-3-3-3-3-3-3-3-3-3-3-3-3-3-x-x-2-x-x-2-7-7-7-7-7-7-5-5-
E-|---------------------------------x-x-0-x-x-0-----------------

e-|-------------------------------------------------------------|
B-|-------------------------------------------------------------|
G-|-------------------------------------------------------------|
D-|-5-5-5-5-5-5-5-5-5-5-5-5-5-5-5-5-------------9-9-9-9-9-9-7-7-|
A-|-3-3-3-3-3-3-3-3-3-3-3-3-3-3-3-3-x-x-2-x-x-2-7-7-7-7-7-7-5-5-|
E-|---------------------------------x-x-0-x-x-0-----------------|

e-|-----------------------------------------------------------------
B-|-----------------------------------------------------------------
G-|-----------------------------------------------------------------
D-|-----------------------------------------------------------------
A-|-9-9-9-9-9-9-9-9-4-4-4-4-4-4-4-4-5-5-5-5-5-5-5-5-5-5-5-5-5-5-5-5-
E-|-7-7-7-7-7-7-7-7-2-2-2-2-2-2-2-2-3-3-3-3-3-3-3-3-3-3-3-3-3-3-3-3-

e-|-----------------------------------------------------------------|
B-|-----------------------------------------------------------------|
G-|-----------------------------------------------------------------|
D-|-----------------------------------------------------------------|
A-|-9-9-9-9-9-9-9-9-4-4-4-4-4-4-4-4-5-5-5-5-5-5-5-5-5-5-5-5-5-5-5-5-|
E-|-7-7-7-7-7-7-7-7-2-2-2-2-2-2-2-2-3-3-3-3-3-3-3-3-3-3-3-3-3-3-3-3-|

e-|--------------------------------------------------------------------------
B-|--------------------------------------------------------------------------
G-|--------------------------------------------------------------------------
D-|--------------------------------------------------------------------------
A-|-7-8-9-9-7-10-7-7-9-7-5---7-8-9-9-7-10-7-7-9-7-5---7-8-9-9-7-10-7-7-9-7-5-
E-|------------------------7------------------------7------------------------

e-|-------------------|
B-|-------------------|
G-|-------------------|
D-|-------------9-9-9-|
A-|---7-8-9-9-7-------|
E-|-7-----------------|

e-|-----------------------------------------------------------------
B-|-----------------------------------------------------------------
G-|-----------------------------------------------------------------
D-|-9-9-9-9-9-9-9-9-------------------------------------------------
A-|-7-7-7-7-7-7-7-7-5-5-5-5-5-5-5-5-7-7-7-7-7-7-7-7-9-9-9-9-9-9-9-9-
E-|-----------------3-3-3-3-3-3-3-3-5-5-5-5-5-5-5-5-7-7-7-7-7-7-7-7-

e-|-----------------------------------------------------------------|
B-|-----------------------------------------------------------------|
G-|-----------------------------------------------------------------|
D-|-9-9-9-9-9-9-9-9---------------------------------5-5-5-5-5-5-5-5-|
A-|-7-7-7-7-7-7-7-7-5-5-5-5-5-5-5-5-7-7-7-7-7-7-7-7-3-3-3-3-3-3-3-3-|
E-|-----------------3-3-3-3-3-3-3-3-5-5-5-5-5-5-5-5-----------------|

e-|-------------------------------------------------------------
B-|-------------------------------------------------------------
G-|-------------------------------------------------------------
D-|-5-5-5-5-5-5-5-5-5-5-5-5-5-5-5-5-------------9-9-9-9-9-9-7-7-
A-|-3-3-3-3-3-3-3-3-3-3-3-3-3-3-3-3-x-x-2-x-x-2-7-7-7-7-7-7-5-5-
E-|---------------------------------x-x-0-x-x-0-----------------

e-|-------------------------------------------------------------|
B-|-------------------------------------------------------------|
G-|-------------------------------------------------------------|
D-|-5-5-5-5-5-5-5-5-5-5-5-5-5-5-5-5-------------9-9-9-9-9-9-7-7-|
A-|-3-3-3-3-3-3-3-3-3-3-3-3-3-3-3-3-x-x-2-x-x-2-7-7-7-7-7-7-5-5-|
E-|---------------------------------x-x-0-x-x-0-----------------|

e-|-----------------------------------------------------------------
B-|-----------------------------------------------------------------
G-|-----------------------------------------------------------------
D-|-----------------------------------------------------------------
A-|-9-9-9-9-9-9-9-9-4-4-4-4-4-4-4-4-5-5-5-5-5-5-5-5-5-5-5-5-5-5-5-5-
E-|-7-7-7-7-7-7-7-7-2-2-2-2-2-2-2-2-3-3-3-3-3-3-3-3-3-3-3-3-3-3-3-3-

e-|-----------------------------------------------------------------|
B-|-----------------------------------------------------------------|
G-|-----------------------------------------------------------------|
D-|-----------------------------------------------------------------|
A-|-9-9-9-9-9-9-9-9-4-4-4-4-4-4-4-4-5-5-5-5-5-5-5-5-5-5-5-5-5-5-5-5-|
E-|-7-7-7-7-7-7-7-7-2-2-2-2-2-2-2-2-3-3-3-3-3-3-3-3-3-3-3-3-3-3-3-3-|

e-|-----------------------------------------------------------------
B-|-----------------------------------------------------------------
G-|-----------------------------------------------------------------
D-|-6-6-6-6-6-6-6-6-------------------------------------------------
A-|-4-4-4-4-4-4-4-4-6-6-6-6-6-6-6-6-7-7-7-7-7-7-7-7-7-7-7-7-7-7-7-7-
E-|-----------------4-4-4-4-4-4-4-4-5-5-5-5-5-5-5-5-5-5-5-5-5-5-5-5-

e-|-----------------------------------------------------------------|
B-|-----------------------------------------------------------------|
G-|-----------------------------------------------------------------|
D-|-6-6-6-6-6-6-6-6-------------------------------------------------|
A-|-4-4-4-4-4-4-4-4-6-6-6-6-6-6-6-6-7-7-7-7-7-7-7-7-7-7-7-7-7-7-7-7-|
E-|-----------------4-4-4-4-4-4-4-4-5-5-5-5-5-5-5-5-5-5-5-5-5-5-5-5-|

e-|---------------------------------------------
B-|---------------------------------------------
G-|---------------------------------------------
D-|---------------------------------------------
A-|-7-7-9-10-12-12-14-15--15-12-14-10-12-9-10-9-
E-|-5-5-7--8-10-10-12-13--13-10-12--8-10-7--8-7-

e-|---------------------------------------------|
B-|---------------------------------------------|
G-|---------------------------------------------|
D-|---------------------------------------------|
A-|-7-7-9-10-12-12-14-15--15-12-14-10-12-9-10-9-|
E-|-5-5-7--8-10-10-12-13--13-10-12--8-10-7--8-7-|

   
1.962 exibições
    • ½ Tom
    • A
    • Bb
    • B
    • C
    • Db
    • D
    • Eb
    • E
    • F
    • F#
    • G
    • Ab
  • Adicionar à lista

    0 comentários

    Mostrar mais comentários

    Conseguiu tocar?

    0 Tocaram 0 Ainda não

    Grave um vídeo tocando The Daily Grind e mande pra gente!

    00:00 / 00:00
    outros vídeos desta música
    repetir qualidade Automático
    Outros vídeos desta música
    00:00 / 00:00
    Automático

    Cifra Club Pro

    Aproveite o Cifra Club com benefícios exclusivos e sem anúncios
    Cifra Club Pro
    Aproveite o Cifra Club com benefícios exclusivos e sem anúncios
    OK