Cifra Club

It´s My Job To Keep Punk Rock Elite

Nofx

Cifra: Principal (violão e guitarra)
tom: F
Intro:

Guitarra 1
e|------------------------|
B|------------------------|
G|-555---------1010-8-----|2x
D|-555-888-888-1010-8-----|
A|-333-888-888-8-8--6-----|
E|-----666-666------------|
C Bb F D#

Guitarra 2
e|------------------------|
B|------------------------|
G|-------------1010-8-55--|2x
D|-------------1010-8-55--|
A|-------------8-8--6-33--|
E|------------------------|
               F   D# C
Guitarras 1 e 2
e|------------------------|
B|------------------------|
G|-555---------1010-8-----|
D|-555-888-888-1010-8-----|
A|-333-888-888-8-8--6-----|
E|-----666-666------------|
   C   G#      F    D#
Verso:
Guitarras 1 e 2
e|---------------------------------|
B|---------------------------------|
G|-555-555-----------------888-888-|
D|-555-555-333-333-666-666-888-888-|
A|-333-333-333-333-666-666-666-666-|
E|---------111-111-444-444---------|
   C       F       G#      D#

e|---------------------------------|
B|---------------------------------|
G|-555-555---------444-444-888-888-|
D|-555-555-666-666-444-444-888-888-|
A|-333-333-666-666-222-222-666-666-|
E|---------444-444-----------------|
   C       G#      B       D#

Final:
e|-----------------------------------------------------|
B|-----------------------------------------------------|
G|-5555-5555-5555--------------------------------------| guitarra 2(base)
D|-5555-5555-5555--666-666-666-666--888-888-888-888-10-|
A|-3333-3333-3333--666-666-666-666--888-888-888-888-10-|
E|-----------------444-444-444-444--666-666-666-666-8--|
   C               G#               Bb              C
Final:
e|-----------------------------------------------------|
B|-----------------------------------------------------|
G|-1313--1212--1010--88--77--66--33--131313--12--------|
D|-x  x--x x --x x --xx--xx--xx--xx--x x x --x --------| guitarra 1(solo)
A|-1111--1010--8 8 --66--55--44--11--111111--10--------|
E|-----------------------------------------------------|
00:00 / 00:00
Outros vídeos desta música
Repetir
Outros vídeos desta música
Composição de Fat Mike
Colaboração e revisão:
  • Phelipe Teixeira
  • Paulo Sérgio
9.460 exibições
    • ½ Tom
    • A
    • Bb
    • B
    • C
    • Db
    • D
    • Eb
    • E
    • F
    • F#
    • G
    • Ab
  • Adicionar à lista

    0 comentários

    Ver todos os comentários

    Conseguiu tocar?

    1 Tocaram 0 Ainda não

    Grave um vídeo tocando It´s My Job To Keep Punk Rock Elite e nos envie!

    00:00 / 00:00

    Cifra Club Pro

    Aproveite o Cifra Club com benefícios exclusivos e sem anúncios
    Cifra Club Pro
    Aproveite o Cifra Club com benefícios exclusivos e sem anúncios
    OK