Cifra Club

Liza and Louise

Nofx

Cifra: Principal (violão e guitarra)
tom: A
intro - guitar 1

|---------------------------------------------------------------------------------
|----------------17-------------------------------------------------------------14
|-17^-------14--------17---17----16--14--------------------------14---16----16----
|----------------------------------------16-------------14---16-------------------
|----------------------------------------------14---16----------------------------
|---------------------------------------------------------------------------------

|---------------------------------------------------------------|
|-14--14---------------14--14--14--------------14--14-----------|
|---------16--16--16---------------16--16--16---------16--16--14|
|---------------------------------------------------------------|
|---------------------------------------------------------------|
|---------------------------------------------------------------|

|---------------------------------|-------------------------------|
|---------------------------------|-------------------------------|
|--14--16--14--16-----------------|-------------------------------|
|------------------14--16--14-----|-------------------------------|
|------------------------------16-|--14--16--14--16--12--14--12--9|
|---------------------------------|-------------------------------|

guitar 2

|-----------------------------------------------------------------------|
|-----------------------------------------------------------------------|
|-----------------6-----------------6-7-----------------9---------------|
|-7---------------6-4---------------6-7-7-7-7-7-7-7-7-9-9-9-9-9-9-9-9-9-|
|-7-7-7-7-7-7-7-7-4-4-4-4-4-4-4-4-4-4-5-5-5-5-5-5-5-5-9-7-7-7-7-7-7-7-7-|
|-5-5-5-5-5-5-5-5---2-2-2-2-2-2-2-2-------------------7-----------------|

verse - (remember, this means pm> |__|


|-------------------------------------------------------------------
|-------------------------------------------------------------------
|---------------------6----------------------6--7--7-7-7-7-7-7-7-7--
|-7--7-7-7-7-7-7-7-7--6--4--4-4-4-4-4-4-4-4--6--7--7-7-7-7-7-7-7-7--
|-7--7-7-7-7-7-7-7-7--4--4--4-4-4-4-4-4-4-4--4--5--5-5-5-5-5-5-5-5--
|-5--5-5-5-5-5-5-5-5-----2--2-2-2-2-2-2-2-2-------------------------

 -----------------------|
 -----------------------|
 ----9--9-9-9-9-9-9-9-9-|
 -9--9--9-9-9-9-9-9-9-9-|
 -9--7--7-7-7-7-7-7-7-7-|
 -7---------------------|

post verse

|-------------------------------------------------------------------------
|-------------------------------------------------------------------------
|---------------------------------------------------------4-4-4-4-4-4-4-4-
|-7-7-7-7-7-7-7-7-7-7-7-7-7-7-7-7--6--4--4-4-4-4-4-4-4-4--4-4-4-4-4-4-4-4-
|-7-7-7-7-7-7-7-7-7-7-7-7-7-7-7-7--6--4--4-4-4-4-4-4-4-4--2-2-2-2-2-2-2-2-
|-5-5-5-5-5-5-5-5-5-5-5-5-5-5-5-5--4--2--2-2-2-2-2-2-2-2------------------

 ----------------------------------|
 ----------------------------------|
 -9-9-9-9-9-9-9-9--6-6-6-6-6-6-6-6-|
 -9-9-9-9-9-9-9-9--6-6-6-6-6-6-6-6-|
 -7-7-7-7-7-7-7-7--4-4-4-4-4-4-4-4-|
 ----------------------------------|

chorus


|-----------------------------------------------------------------
|-----------------------------------------------------------------
|-------------6--6-6-6-6--7--7-7-7-7--------------4-4-4-4-4-4-4-4-
|-7--7-7-7-7--6--6-6-6-6--7--7-7-7-7--4--4-4-4-4--4-4-4-4-4-4-4-4-
|-7--7-7-7-7--4--4-4-4-4--5--5-5-5-5--4--4-4-4-4--2-2-2-2-2-2-2-2-
|-5--5-5-5-5--------------------------2--2-2-2-2------------------

 -----------------|
 -----------------|
 -7-7-7-7-9-9-9-9-|
 -7-7-7-7-9-9-9-9-|
 -5-5-5-5-7-7-7-7-|
 -----------------|

outro

|-5-5-5-5-5-5-5-5-5-5-5-5-5-5-5-5---7^--5--|
|------------------------------------------|
|------------------------------------------|
|------------------------------------------|
|------------------------------------------|
|------------------------------------------|

Composição de Fat Mike
Colaboração e revisão:
  • Luiz Martins
8.139 exibições
    • ½ Tom
    • A
    • Bb
    • B
    • C
    • Db
    • D
    • Eb
    • E
    • F
    • F#
    • G
    • Ab
  • Adicionar à lista

    0 comentários

    Ver todos os comentários

    Conseguiu tocar?

    0 Tocaram 0 Ainda não

    Grave um vídeo tocando Liza and Louise e nos envie!

    00:00 / 00:00
    Outros vídeos desta música
    Repetir Qualidade Automático
    Outros vídeos desta música
    00:00 / 00:00
    Automático

    Cifra Club Pro

    Aproveite o Cifra Club com benefícios exclusivos e sem anúncios
    Cifra Club Pro
    Aproveite o Cifra Club com benefícios exclusivos e sem anúncios
    OK