Cifra Club

Lory Mayers

Nofx

Cifra: Principal (violão e guitarra)
tom: D
Introdução:

Guitarra 1 (base): 
       B             G             A              F#      
e|--------------|--------------|--------------|--------------|
B|--------------|--------------|--------------|--------------|
G|--4-----------|--------------|--------------|--------------|    
D|--4-----------|--5-----------|--7-----------|--4-----------|
A|--2-----------|--5-----------|--7-----------|--4-----------|
E|--------------|--3-----------|--5-----------|--2-----------|

Guitarra 2:
       D              E               F#
e|--------------|--------------|--------------|
B|--------------|--------------|--------------|
G|--7-----------|--9-----------|--11----------|     3x
D|--------------|--------------|--------------|
A|--5-----------|--7-----------|--9-----------|
E|--------------|--------------|--------------|
      C#              D               E
e|--------------|--------------|--------------|
B|--------------|--------------|--------------|
G|--6-----------|--7-----------|--9-----------|     3x
D|--------------|--------------|--------------|
A|--4-----------|--5-----------|--7-----------|
E|--------------|--------------|--------------|


 B                   A        G              
Lory Mayers used to live upstairs
              A                  D
Our parents had been friends for years
 B                    A         G
Almost every afternoon wed play forbidden games
A                                        D             Em 
At nine yeares old there no such thing as shame

 B                     A      G
It wasn't recognition of her face 
                          A
What brought me back was familiar Mark
                          F#
As it flashed agross the screen
                 B                 A         G
I bought some magazines, some video taped scenes
                 A                    D                Em
Incriminating act I fell that I could save her
  
 B                  A    G
Who aer you to teel me how to live my life?
                 F#   A                     D
You think I sell my body, I merely sell my time
                 B                         A    G
I aint no  cinderella, I aint waiting for no prince
                 F#   A                           D
To save me in fact until just now I was doin just fine
and on and on

 B                                
I know what degradation feels like
 A   G                          A
I felt it on the floor at the factory
                      D                B
Where I worked long before, I took control
                G
Now I answer to me
                    A                        F#
The 50k I make this year will go anywhere I please
               B
Wheres the problem?


Repete a introdução até acabar a música.
00:00 / 00:00
Outros vídeos desta música
Repetir
Outros vídeos desta música
Compositor não encontrado.
Colaboração e revisão:
  • Giovani Fontes
7.079 exibições
    • ½ Tom
    • A
    • Bb
    • B
    • C
    • Db
    • D
    • Eb
    • E
    • F
    • F#
    • G
    • Ab
  • Adicionar à lista

    0 comentários

    Ver todos os comentários

    Conseguiu tocar?

    0 Tocaram 0 Ainda não

    Grave um vídeo tocando Lory Mayers e nos envie!

    Entre para oCifra Club PRO

    Tenha acesso a benefícios exclusivos no App e no Site

    • Chega de anúncios

    • Prioridade de compra em lançamentos

    • Mais recursos no app do Afinador

    • Atendimento Prioritário

    • Descontos nos produtos Cifra Club

    • Ajude a produzir mais conteúdo

    00:00 / 00:00

    Cifra Club Pro

    Aproveite o Cifra Club com benefícios exclusivos e sem anúncios
    Cifra Club Pro
    Aproveite o Cifra Club com benefícios exclusivos e sem anúncios
    OK