Cifra Club

Please Stop Fuckin' My Mom

Nofx

Cifra: Principal (violão e guitarra)
tom: E
Intro:
e| ------------------------------------------------ --------------- |
B| ------------------------------------------------ --------------- |
G| -------------------- 7 ------------------------- 7- ------------ |
D| --- --- 2-2 5--5--5 --- -------- 7 2-2 --- --- 5--5--5 7- ------ |
A|--- --- 2-2 5--5--5 --- -------- 5 2-2 --- --- 5--5--5 5- ------- |
E| --- --- 0--0 3--3--3 ------------ 0--0 --- ----- 3--3--3 ------- |

Verso:
e | ------------------------------------------------ -------------- |
B| ------------------------------------------------ --------------- |
G| --------------------------- 7-7-7-7-7 9-9-9-9-9 --- ------------ |
D| --- --- 2-2-2-2-2 5-5-5-5-5 7-7-7-7-7 --- --- 9-9-9-9-9 -------- |
A| --- --- 2-2-2-2-2 5-5-5-5-5 5-5-5-5-5 --- --- 7-7-7-7-7 -------- |
E| --- --- 0-0-0-0-0 3-3-3-3-3 ------------------------ ----------- |

Refrão:
e| ------------------------------------------------ --------------------------- |
B| ------------------------------------------------ --------------------------- |
G| -------------------- 7 ------------------------- 7- ------------------------ |
D| --- --- 2-2 5--5--5 --- -------- 7 2-2 --- --- 5--5--5 7- ------------------ |
A| --- --- 2-2 5--5--5 --- -------- 5 2-2 --- --- 5--5--5 5- ------------------ |
E| --- --- 0--0 3--3--3 ------------ 0--0 --- ----- 3--3--3 ------------------- |
00:00 / 00:00
Outros vídeos desta música
Repetir
Outros vídeos desta música
Compositor não encontrado.
Colaboração e revisão:
  • Gabriel Belem
22 exibições
    • ½ Tom
    • A
    • Bb
    • B
    • C
    • Db
    • D
    • Eb
    • E
    • F
    • F#
    • G
    • Ab
  • Adicionar à lista

    0 comentários

    Ver todos os comentários

    Conseguiu tocar?

    0 Tocaram 0 Ainda não

    Grave um vídeo tocando Please Stop Fuckin' My Mom e nos envie!

    Entre para oCifra Club PRO

    Tenha acesso a benefícios exclusivos no App e no Site

    • Chega de anúncios

    • Prioridade de compra em lançamentos

    • Mais recursos no app do Afinador

    • Atendimento Prioritário

    • Descontos nos produtos Cifra Club

    • Ajude a produzir mais conteúdo

    00:00 / 00:00

    Cifra Club Pro

    Aproveite o Cifra Club com benefícios exclusivos e sem anúncios
    Cifra Club Pro
    Aproveite o Cifra Club com benefícios exclusivos e sem anúncios
    OK