Cifra Club

16 Toneladas

Noriel Vilela

Cifra: Principal (violão e guitarra)
tom: C
[Intro]

     Fm     Bbm   C7      F
E|-1------------------------|
B|----1---------------------|
G|-------1------------------|
D|----------3----1-0-2--3---|
A|-------------3------------|
E|--------------------------|

Sente este samba quente
Que é muito legal
Fm
É super pra frente
É bem genial
Embalo como este
   Bbm
Só quem vai curtir
     Fm
Quem não se machucar
Quando deixar cair

         Fm
Por isso vem, vem
Embale na nossa
Este balanço
Tira qualquer um da fossa
                  Bbm
Ele é um barato e é da pesada
Fm
Esse é o famoso 16 toneladas

     Fm     Bbm   C7      F
E|-1------------------------|
B|----1---------------------|
G|-------1------------------|
D|----------3----1-0-2--3---|
A|-------------3------------|
E|--------------------------|

E bolei o ano inteiro
Este samba pra frente
Fm
É gostoso paca
É um samba decente
Segure esta conversa
  Bbm
Segure a jogada
     Fm
Quem não gosta de samba
Não gosta de nada
    Fm
E a curtição
No samba empolgado
É o flamengão
Num estádio lotado
Turma da pesada
      Bbm
Que segura a parada
Fm
Esse é o famoso 16 toneladas

     Fm     Bbm   C7      F
E|-1------------------------|
B|----1---------------------|
G|-------1------------------|
D|----------3----1-0-2--3---|
A|-------------3------------|
E|--------------------------|

Sente este samba quente
Que é muito legal
Fm
É super pra frente
É bem genial

Embalo como este
   Bbm
Só quem vai curtir
     Fm
Quem não se machucar
Quando deixar cair

          Fm
Por isso, vem, vem
Embale na nossa
Este balanço
Tira qualquer um da fossa
                  Bbm
Ele é um barato e é da pesada
Fm
Esse é o famoso 16 toneladas

     Fm     Bbm   C7      F
E|-1------------------------|
B|----1---------------------|
G|-------1------------------|
D|----------3----1-0-2--3---|
A|-------------3------------|
E|--------------------------|

E, já dei o meu recado
Agora vou me mandar
    Fm
Vou refrescar a cuca
Pra poder incrementar
Porque cuca cansada
   Bbm
Só da confusão
Fm
Onda de pirado
Deixa a gente na mão

         Fm
Por isso nem, vem
Não vai me encontrar
Agora estou na minha
Pois estou devagar
                             Bbm
Já disse o que queria a toda rapaziada

Ai, oh ... é o 16 toneladas

     Fm     Bbm   C7      F
E|-1------------------------|
B|----1---------------------|
G|-------1------------------|
D|----------3----1-0-2--3---|
A|-------------3------------|
E|--------------------------|
00:00 / 00:00
Outros vídeos desta música
Repetir
Outros vídeos desta música
Composição de Merle Travis
Colaboração e revisão:
56.566 exibições
    • ½ Tom
    • A
    • Bb
    • B
    • C
    • Db
    • D
    • Eb
    • E
    • F
    • F#
    • G
    • Ab
  • Adicionar à lista

    0 comentários

    Ver todos os comentários

    Entre para oCifra Club PRO

    Tenha acesso a benefícios exclusivos no App e no Site

    • Chega de anúncios

    • Prioridade de compra em lançamentos

    • Mais recursos no app do Afinador

    • Atendimento Prioritário

    • Descontos nos produtos Cifra Club

    • Ajude a produzir mais conteúdo

    00:00 / 00:00

    Cifra Club Pro

    Aproveite o Cifra Club com benefícios exclusivos e sem anúncios
    Cifra Club Pro
    Aproveite o Cifra Club com benefícios exclusivos e sem anúncios
    OK