Cifra Club

Aprenda

Anchor

Novo Amor

Cifra: Principal (violão e guitarra)
tom: E
Intro:

    A                               D
E|-----------------------------------------------------------------|
B|---2-------2-------2-------2-------3-------3-------3-------3-----|
G|-------2-------2-------2-------2-------2-------2-------2-------2-|
D|-----------------------------------------------------------------|
A|-0---0---0---0---0---0---0---0-----------------------------------|
D|---------------------------------0---0---0---0---0---0---0---0---|

    E               F#m     A       D
E|-----------------------------------------------------------------|
B|-------------------2----/--5----\--------------------------------|
G|---1---2---1---2-------2/------6\------2-------2-------2-------2-|
D|-----------------------------------0-------0-------0-------0-----|
A|-----------------------------------------------------------------|
D|-2---2---2---2---4---4--/7---7---0---0---0---0---0---0---0---0---|

Verso 1:

    A                               D
E|-----------------------------------------------------------------|
B|---2-------2-------2-------2-------3-------3-------3-------3-----|
G|-------2-------2-------2-------2-------2-------2-------2-------2-|
D|-----------------------------------------------------------------|
A|-0---0---0---0---0---0---0---0-----------------------------------|
D|---------------------------------0---0---0---0---0---0---0---0---|

    E               F#m     A       D
E|-----------------------------------------------------------------|
B|-------------------2----/--5----\--------------------------------|
G|---1---2---1---2-------2/------6\------2-------2-------2-------2-|
D|-----------------------------------0-------0-------0-------0-----|
A|-----------------------------------------------------------------|
D|-2---2---2---2---4---4--/7---7---0---0---0---0---0---0---0---0---|

Verso 2:

    A                               D
E|-----------------------------------------------------------------|
B|---2-------2-------2-------2-------3-------3-------3-------3-----|
G|-------2-------2-------2-------2-------2-------2-------2-------2-|
D|-----------------------------------------------------------------|
A|-0---0---0---0---0---0---0---0-----------------------------------|
D|---------------------------------0---0---0---0---0---0---0---0---|
 
    E               F#m     A       D
E|-----------------------------------------------------------------|
B|-------------------2----/--5----\--------------------------------|
G|---1---2---1---2-------2/------6\------2-------2-------2-------2-|
D|-----------------------------------0-------0-------0-------0-----|
A|-----------------------------------------------------------------|
D|-2---2---2---2---4---4--/7---7---0---0---0---0---0---0---0---0---|

Refrão:

    F#m             A               D
E|-----------------------------------------------------------------|
B|---2-------2----/--5-------5----\--------------------------------|
G|-------2-------2/------6-------6\------2-------2-------2-------2-| x4
D|-----------------------------------0-------0-------0-------0-----|
A|-----------------------------------------------------------------|
D|-4---4---4---4--/7---7---7---7---0---0---0---0---0---0---0---0---|

Instrumental:

    A                               D
E|-----------------------------------------------------------------|
B|---2-------2-------2-------2-------3-------3-------3-------3-----|
G|-------2-------2-------2-------2-------2-------2-------2-------2-|
D|-----------------------------------------------------------------|
A|-0---0---0---0---0---0---0---0-----------------------------------|
D|---------------------------------0---0---0---0---0---0---0---0---|

    E               F#m     A       D
E|-----------------------------------------------------------------|
B|-------------------2----/--5----\--------------------------------|
G|---1---2---1---2-------2/------6\------2-------2-------2-------2-|
D|-----------------------------------0-------0-------0-------0-----|
A|-----------------------------------------------------------------|
D|-2---2---2---2---4---4--/7---7---0---0---0---0---0---0---0---0---|

Verso 3:

    A                               D
E|-----------------------------------------------------------------|
B|---2-------2-------2-------2-------3-------3-------3-------3-----|
G|-------2-------2-------2-------2-------2-------2-------2-------2-|
D|-----------------------------------------------------------------|
A|-0---0---0---0---0---0---0---0-----------------------------------|
D|---------------------------------0---0---0---0---0---0---0---0---|
 
    E               F#m     A       D
E|-----------------------------------------------------------------|
B|-------------------2----/--5----\--------------------------------|
G|---1---2---1---2-------2/------6\------2-------2-------2-------2-|
D|-----------------------------------0-------0-------0-------0-----|
A|-----------------------------------------------------------------|
D|-2---2---2---2---4---4--/7---7---0---0---0---0---0---0---0---0---|

Verso 4:

    A                               D
E|-----------------------------------------------------------------|
B|---2-------2-------2-------2-------3-------3-------3-------3-----|
G|-------2-------2-------2-------2-------2-------2-------2-------2-|
D|-----------------------------------------------------------------|
A|-0---0---0---0---0---0---0---0-----------------------------------|
D|---------------------------------0---0---0---0---0---0---0---0---|

    E               F#m     A       D
E|-----------------------------------------------------------------|
B|-------------------2----/--5----\--------------------------------|
G|---1---2---1---2-------2/------6\------2-------2-------2-------2-|
D|-----------------------------------0-------0-------0-------0-----|
A|-----------------------------------------------------------------|
D|-2---2---2---2---4---4--/7---7---0---0---0---0---0---0---0---0---|

Refrão:

    F#m             A               D
E|-----------------------------------------------------------------|
B|---2-------2----/--5-------5----\--------------------------------|
G|-------2-------2/------6-------6\------2-------2-------2-------2-| x3
D|-----------------------------------0-------0-------0-------0-----|
A|-----------------------------------------------------------------|
D|-4---4---4---4--/7---7---7---7---0---0---0---0---0---0---0---0---|

    F#m             A               D
E|---------------------------------------------------------------------------|
B|---2-------2----/--5-------5----\------------------------------------------|
G|-------2-------2/------6-------6\------2-------2-------2-------------------| 
D|-----------------------------------0-------0-------0-----------------------|
A|---------------------------------------------------------------------------|
D|-4---4---4---4--/7---7---7---7---0---0---0---0---0---0---0-----------------|

Ponte:

    E               F#m             D
E|-----------------------------------------------------------------|
B|-----------------------------------------------------------------|
G|-1---------------2---------------2-------------------------------| x2
D|-2---------------4---------------0-------------------------------|
A|-2---------------4---------------0-------------------------------|
D|-2---------------4---------------0-------------------------------|

Refrão:

    E5              F#5             D5
E|-----------------------------------------------------------------|
B|-----------------------------------------------------------------|
G|-----------------------------------------------------------------| x3
D|-2-2-2-2-2-2-2-2/4-4-4-4-4-4-4-4-0-0-0-0-0-0-0-0-0-0-0-0-0-0-0-0-|
A|-2-2-2-2-2-2-2-2/4-4-4-4-4-4-4-4-0-0-0-0-0-0-0-0-0-0-0-0-0-0-0-0-|
D|-2-2-2-2-2-2-2-2/4-4-4-4-4-4-4-4-0-0-0-0-0-0-0-0-0-0-0-0-0-0-0-0-|

    E5              F#5     G#5     A5                      B5
E|-----------------------------------------------------------------|
B|-----------------------------------------------------------------|
G|-----------------------------------------------------------------|
D|-2-2-2-2-2-2-2-2/4-4-4-4/6-6-6-6/7-7-7-7-7-7-7-7-7-7-7-7/9-9-9-9\|
A|-2-2-2-2-2-2-2-2/4-4-4-4/6-6-6-6/7-7-7-7-7-7-7-7-7-7-7-7/9-9-9-9\|
D|-2-2-2-2-2-2-2-2/4-4-4-4/6-6-6-6/7-7-7-7-7-7-7-7-7-7-7-7/9-9-9-9\|

    A5      F#5     E5                              D5
E|---------------------------------------------------------------------------|
B|---------------------------------------------------------------------------|
G|---------------------------------------------------------------------------|
D|-7-7-7-7\4-4-4-4\2-2-2-2-2-2-2-2-2-2-2-2-2-2-2-2-0-------------------------|
A|-7-7-7-7\4-4-4-4\2-2-2-2-2-2-2-2-2-2-2-2-2-2-2-2-0-------------------------|
D|-7-7-7-7\4-4-4-4\2-2-2-2-2-2-2-2-2-2-2-2-2-2-2-2-0-------------------------|

Final:

    F#m             A               D
E|-----------------------------------------------------------------|
B|-----------------------------------------------------------------|
G|-2---------------6---------------2-------------------------------| x2
D|-4---------------7---------------0-------------------------------|
A|-4---------------7---------------0-------------------------------|
D|-4---------------7---------------0-------------------------------|
Compositor não encontrado.
Colaboração e revisão:
  • Amanda Silva
8.571 exibições
    • ½ Tom
    • A
    • Bb
    • B
    • C
    • Db
    • D
    • Eb
    • E
    • F
    • F#
    • G
    • Ab
  • Adicionar à lista

    0 comentários

    Ver todos os comentários

    Conseguiu tocar?

    5 Tocaram 3 Ainda não

    Grave um vídeo tocando Anchor e nos envie!

    00:00 / 00:00
    Outros vídeos desta música
    Repetir Qualidade Automático
    Outros vídeos desta música
    00:00 / 00:00
    Automático

    Cifra Club Pro

    Aproveite o Cifra Club com benefícios exclusivos e sem anúncios
    Cifra Club Pro
    Aproveite o Cifra Club com benefícios exclusivos e sem anúncios
    OK