Heroi Dos Herois

Novo Som

Composição de: Lenílton
Heroi Dos Herois
Novo Som

Tom: C
		
(intro) Am

                   
Uma missão coroada de paz
Alicerçada nas mãos
Do supremo Criador
No coração exalava o amor
Incompreendido na Terra,       
A Estrela da manhã

G------------------------
D------------------------
A-2-3--------------------
E------------------------ Junto com a guitarra

Mesmo sofrendo        
Ele não reclamou
Olhou pro céu
E pediu pela humanidade

G------------------------
D------------------------
A-2-3--------------------
E------------------------ Junto com a guitarra

Naquela cruz             
O Herói dos heróis
Venceu a morte
E levoooooou...... sobre si os meus pecados

G------------------------
D------------------------
A------------------------
E------5---[5-5-5-]------
           [  3  ] Tercina (quiáltera)

Ele deixou sua glória no céu

G------------------------ (-----------------------)
D------------------------ (------5h7--------------)
A------------------------ (--7--------------------)
E----5---[5-5-5-]-------- (----------5------------)Virada com a Bateria 
         [  3  ] 
     Tercina (quiáltera)                      

Veio revelar a luz     do Sol da justiça
G------------------------
D------------------------
A------------------------
E----5---[5-5-5-]---------
         [  3  ] Tercina (quiáltera)

Ele ensinou a verdade e o amor
G------------------------
D------------------------(use a oitava do A para preencher o espaço vazio)
A------------------------
E----5---[5-5-5-]--------- 
         [  3  ] Tercina (quiáltera)

Provou do beijo da morte,
G------------------------
D------------------------
A------------------------
E----5---[5-5-5-]---------
         [  3  ] Tercina (quiáltera)

Se entregou em meu lugar
G------------------------
D------------------------
A-2-3---[3-3-3]----------
E------------------------ Junto com a guitarra
   Tercina (quiáltera)

Mesmo sofrendo
G------------------------
D------------------------
A------------------------
E-----------3---[3-3—3]--
Ele não reclamou Olhou pro céu
G------------------------
D------------------------
A-5----------------------
E----1------------5------   
E pediu pela humanidade
G------------------------
D------------------------
A-2-3---[3-3-3]----------
E------------------------ Junto com a guitarra
   Tercina (quiáltera)

Naquela cruz
G------------------------
D------------------------
A------------------------
E-----------3---[3-3—3]--
             
O Herói dos heróis Venceu a morte
G-----------------------------------------
D-----------------------------------------
A-5---------------------------------------
E-------0---1-------------3-------5------   
E levoooooou...... sobre si os meus pecados

(solo) Am F C G Am F C G Dm7 Em7 F ( G ) Am




G------------------------
D------------------------
A------------------------
E-------5-------------5--
                     
No coração exalava o amor
G------------------------
D------------------------
A------------------------
E--------------------5---
                                       
Incompreendido na Terra,
G-------------------4h5-4--------------------------------
D--------------7-----------7-5-3-------------4h5--------(solo do contra-baixo)
A----------------------------------2---3—5-7-------------
E----------5-------------------------------------------[3-3-3]
                                             Tercina (quiáltera)
                                
A Estrela da manhã                Mesmo sofrendo Ele não reclamou

Olhou pro céu
G------------------------
D------------------------
A-5----------------------
E----1------------5------   
E pediu pela humanidade
G------------------------
D------------------------
A-2-3---[3-3-3]----------
E------------------------ Junto com a guitarra
   Tercina (quiáltera)
Naquela cruz
             
G------------------------
D------------------------
A------------------------
E-----------3---[3-3—3]--

O Herói dos heróis

Venceu a morte
G-----------------------------------------
D-----------------------------------------
A-5---------------------------------------
E-------0---1-------------3-------5------   

  
E levoooooou...... sobre si os meus pecados...

Final;Am
G------------------------
D------------------------
A------------------------
E-------5-[5-5-5]--------
  Tercina (quiáltera)
Use este também
G---------------------------
D-------7----------7--------
A---------------------------
E--5-5-----[5-5-5]---------- 
  Tercina (quiáltera)
Nesta parte você fica livre para tocar do seu jeito sem sair da escala de Lá menor(ou Dó Maior).
Página 1 / 1

Letras e título
Acordes e artista

resetar configurações
OK