Cifra Club

Apenas um olhar

Nx Zero

Tab de baixo: Principal
exibições 43.252
Ae galera essa versão é a que o Conrado toca, portanto a original


Parte A depois da bateria

-----------------------------------------------------------------------------------------
-----------------------------------------------------------------------------------------
-44444444/16-16-16-16-16-16-16-16--------------------------------------------------------
-----------------------------------------------------------------------------------------

2 vezes
-----------------------------------------------------------------------------------------
-----------------------------------------------------------------------------------------
-4444-6-7-9-7----------------------------------------------------------------------------
-----------------55555-44444-------------------------------------------------------------

2 vezes
-----------------------------------------------------------------------------------------
-----------------------------------------------------------------------------------------
-----------------------------------------------------------------------------------------
-99999999-5555-7777----------------------------------------------------------------------

Voz 1
2 vezes
-----------------------------------------------------------------------------------------
-----------------------------------------------------------------------------------------
-----------------------------------------------------------------------------------------
-99-99-99-99-9-55-55-77-77---------------------------------------------------------------


Refrão
-----------------------------------------------------------------------------------------
-----------------------------------------------------------------------------------------
-----------------------------------------------------------------------------------------
-555-777-999-444-------------------------------------------------------------------------

-----------------------------------------------------------------------------------------
-----------------------------------------------------------------------------------------
-----------------------------------------------------------------------------------------
-555-777-9999----------------------------------------------------------------------------

-----------------------------------------------------------------------------------------
-----------------------------------------------------------------------------------------
-----------------------------------------------------------------------------------------
-555-777-999-444-------------------------------------------------------------------------

-----------------------------------------------------------------------------------------
-----------------------------------------------------------------------------------------
-----------------------------------------------------------------------------------------
-555-777-9999999999999-------------------------------------------------------------------

Voz 2
2 vezes
----------------------------------------------------------------------------------------
----------------------------------------------------------------------------------------
-----------------------7-----7----------------------------------------------------------
-99999999-55555555-000---000---77777777-------------------------------------------------

Parte B
2 vezes
----------------------------------------------------------------------------------------
----------------------------------------------------------------------------------------
----------------------------------------------------------------------------------------
-99999999-77777777-22222222-4444-5555---------------------------------------------------

Parte A depois da bateria
-----------------------------------------------------------------------------------------
-----------------------------------------------------------------------------------------
-44444444/16-16-16-16-16-16-16-16--------------------------------------------------------
-----------------------------------------------------------------------------------------

2 vezes
-----------------------------------------------------------------------------------------
-----------------------------------------------------------------------------------------
-4444-6-7-9-7----------------------------------------------------------------------------
-----------------55555-44444-------------------------------------------------------------

2 vezes
-----------------------------------------------------------------------------------------
-----------------------------------------------------------------------------------------
-----------------------------------------------------------------------------------------
-99999999-5555-7777----------------------------------------------------------------------

Voz 3
----------------------------------------------------------------------------------------
----------------------------------------------------------------------------------------
-12-12-12-14-14-14-16-16-16-11-11-11----------------------------------------------------
----------------------------------------------------------------------------------------

----------------------------------------------------------------------------------------
----------------------------------------------------------------------------------------
-12-12-12-14-14-14-16-16-16-16----------------------------------------------------------
----------------------------------------------------------------------------------------

repete tudo 3 vezes

----------------------------------------------------------------------------------------
----------------------------------------------------------------------------------------
-12-12-12-14-14-14-16-16-16-16-16-16-16-16-16-16-16-16-16-16-16-16-16-16----------------
----------------------------------------------------------------------------------------

Voz 2
2 vezes
----------------------------------------------------------------------------------------
----------------------------------------------------------------------------------------
-----------------------7-----7----------------------------------------------------------
-99999999-55555555-000---000---77777777-------------------------------------------------

Parte B
2 vezes
----------------------------------------------------------------------------------------
----------------------------------------------------------------------------------------
----------------------------------------------------------------------------------------
-99999999-77777777-22222222-4444-5555---------------------------------------------------

Só guitarras

Parte C
----------------------------------------------------------------------------------------
----------------------------------------------------------------------------------------
----------------------------------------------------------------------------------------
-4444-5555------------------------------------------------------------------------------

Parte A
-----------------------------------------------------------------------------------------
-----------------------------------------------------------------------------------------
-4444-6-7-9-7----------------------------------------------------------------------------
-----------------55555-44444-------------------------------------------------------------

-----------------------------------------------------------------------------------------
-----------------------------------------------------------------------------------------
-4444-6-7-9-7----------------------------------------------------------------------------
-----------------55555-44444-9-----------------------------------------------------------
Composição: Dani Weksler / Fi Ricardo / Gee Rocha / Yuri NishidaColaboração e revisão:
  • Rafael Checkley

0 comentários

    mostrar mais comentários

    Conseguiu tocar?

    1tocaram0ainda não

    Grave um vídeo tocando Apenas um olhar e mande pra gente!

    00:00 / 00:00
    outros vídeos desta música
    repetirqualidadeautomática
    Outro vídeos desta música
      00:00 / 00:00
      automática
      OK