Cifra Club

Daqui Pra Frente

Nx Zero

Tab de baixo: Principal
exibições 3.387
Estou aqui pra dizer..
G----------------------------------
D------------000-1111-111-000------
A--3333--333-----------------------
E-----------------------------4444-

Imaginei te ver..
G-----------------------
D-----------------------
A-----------------------
E--444-444-4444-4444----

Te ver chorar..
G---------------------------------------------------
D----------000-1111-111-000-------------------------
A-3333-333------------------------------------------
E----------------------------444-444-444-444-4444---

Quis te ver assim.|.Escrever aqui..|Tudo que senti..|..............|
G-----------------|----------------|----------------|--------------|
D-----------------|----------------|----------------|--------------|
A-1111111111111112|3333333333333333|----------------|--------------|
E-----------------|----------------|11111111111111-3|44444444444444|

Mais espero que daqui pra frente
G---------------------
D-1111111111111111----
A---------------------
E---------------------

Tudo se renove pra nós dois
G------------------
D------------------
A-1111111111111110-
E------------------

Nossas vidas são tao diferentes
G------------------------------
D------------------------------
A------------------------------
E-11111111111111-3-------------

Viva agora tudo oq sonhou
G------------------------------
D------------------------------
A------------------------------
E-4444444444444444-------------

Muita coisa ainda está por vir
G---------------------
D-1111111111111111----
A---------------------
E---------------------

Muita coisa ainda vai mudar
G------------------
D------------------
A-1111111111111110-
E------------------

Eu espero que daqui pre frente...
G----------------------------------------------
D----------------------------------------------
A----------------------------------------------
E-11111111111111-3-4444444444444444------------

Estou aqui pra dizer..
G----------------------------------
D------------000-1111-111-000------
A--3333--333-----------------------
E-----------------------------4444-

Pra te mostrar..
G-----------------------
D-----------------------
A-----------------------
E--444-444-4444-4444----

Temos muito..
G---------------------------------------------------
D----------000-1111-111-000-------------------------
A-3333-333------------------------------------------
E----------------------------444-444-444-444-4444---

Quis te ver assim.|.Escrever aqui..|Tudo que senti..|..............|
G-----------------|----------------|----------------|--------------|
D-----------------|----------------|----------------|--------------|
A-1111111111111112|3333333333333333|----------------|--------------|
E-----------------|----------------|11111111111111-3|44444444444444|

Mais espero que daqui pra frente
G---------------------
D-1111111111111111----
A---------------------
E---------------------

Tudo se renove pra nós dois
G------------------
D------------------
A-1111111111111110-
E------------------

Nossas vidas são tao diferentes
G------------------------------
D------------------------------
A------------------------------
E-11111111111111-3-------------

Viva agora tudo oq sonhou
G------------------------------
D------------------------------
A------------------------------
E-4444444444444444-------------

Muita coisa ainda está por vir
G---------------------
D-1111111111111111----
A---------------------
E---------------------

Muita coisa ainda vai mudar
G------------------
D------------------
A-1111111111111110-
E------------------

Eu espero que daqui pre frente...
G----------------------------------------------
D----------------------------------------------
A----------------------------------------------
E-11111111111111-3-4444444444444444------------

Eu siga o meu caminho..
G-----------------------
D-----------------------
A-----------------------
E-1111111111111111------

E voce siga o seu
G-----------------------
D-----------------------
A-----------------------
E-3333333333333333------

E acho que isso e mais forte que eu
G--------------------------
D--------------------------
A--------------------------
E-444444444444444444444444-

Tive minha chance..
G-----------------------
D-----------------------
A-----------------------
E-1111111111111111------

E não sobrou mais nada..
G-----------------------
D-----------------------
A-----------------------
E-3333333333333333------

Que Possa fazer voce ficar
G------------------3333333333333333---
D-------------------------------------
A-------------------------------------
E-4444444444444444--------------------

Obs1:Ultimo refrão não tem o baixo..
Obs2:O começo o baixo acompanha o ritmo da guitarra

0 comentários

    mostrar mais comentários

    Conseguiu tocar?

    4tocaram0ainda não

    Grave um vídeo tocando Daqui Pra Frente e mande pra gente!

    00:00 / 00:00
    outros vídeos desta música
    repetirqualidadeautomática
    Outro vídeos desta música
      00:00 / 00:00
      automática
      OK