Nunca Mais

Nx Zero

Composição de: Diego Ferrero / Leandro Rocha
tom: Bb
Intro: A# D# (2x)

A#                    D#
Quanto mais o tempo passa
Mais sinto
A#                  D# 
Cada um tem seu destino
A#          F       D#
Prometa nunca me dizer
A#  F  D#
Nuncaaaa  ...
                                e|-------------------------------      e|------------------
                                B|-------------------------------      B|---11--10--10/11-11
Pouco a pouco                   G|-x-10-10-10--8--8--8--7--8--10--     G|-10--10--10-------
Cada vez mais                   D|-x-x--x--x---x--x--x--x--x--x--- (3x D|------------------
Minha única certeza é você      A|-x-8--8--8---6--6--6--5--6--8---     A|------------------
                                E|-------------------------------      E|------------------

REFRÃO: (solinho 1)
A#                         F
Preso num momento onde os mesmos erros não são
  G                              D#
Iguais como eram antes porque agora
           A#                     F
As suas palavras não me enganam mais
       G           D#
Nunca mais, nunca mais...

(Solinho 1)
 
    4x   4x    4x                               4x   4x    4x    4x
e|-----|-----|-----|---11-11-10-10-------------|-----|-----|-----|-----|
B|11---|-10--|-11--|11-------------13-10/11-11-|-11--|-10--|-11--|-10--|
G|--10-|---10|---10|---------------------------|--10-|---10|---10|---10| 
    
A#                 D# 
Eu não posso te julgar
A#                   D# 
Mas cometi os mesmos erros
A#          F       D#
Prometo nunca te dizer
A#  F  D#
Nuncaaaa...
                                e|-------------------------------     
                                B|-------------------------------     B|---11--10--10/11-11-
Pouco a pouco                   G|-x-10-10-10--8--8--8--7--8--10-     G|-10--10--10---------
Cada vez mais                   D|-x-x--x--x---x--x--x--x--x--x--  3x 
Minha única certeza é você      A|-x-8--8--8---6--6--6--5--6--8--     
                                E|-------------------------------     

REFRÃO (Riff 1)
A#                         F
Preso num momento onde os mesmos erros não são
  G                              D#
Iguais como eram antes porque agora                 
           A#                     F
As suas palavras não me enganam mais              
       G           D#
Nunca mais, nunca mais... 
                    
G         D#                 A#                
E a cada dia quero me libertar             e|---------------------------------
             F                             B|---------------------------------
Deixar pra trás o que me fazia mal         G|-10-8--7--5---12--14--15--17----- 
G              D#               A#         D|-x--x--x--x---x---x---x---x------
Olhar pra frente, seguir minha vida        A|-8--6--5--3---10--12--13--15-----
           F                               E|---------------------------------
E não lembrar desse momento                 
     D#          D#
Nunca mais, nunca mais

REFRÃO
Após o refrao: G D# A# F 
e|---------------------------------
B|---------------------------------
G|-3--5--8--7--5--8--12--10--15--14
D|-x--x--x--x--x--x---x--x----x---x
A|-1--3--6--5--3--6--10--8---13--12
E|---------------------------------
D#
Nunca mais...






é só ouvir a musica que fica fácil
Página 1 / 1

Letras e título
Acordes e artista

resetar configurações
OK