Enviar cifraEntrar

Auto-reverse

O Rappa

Cifra: Principal
exibições 174.952
Tom: A (com acordes na forma de G) Capotraste na 2ª casa
Intro 4x: Bm  Em


   Bm                      Em
Felizes, de uma maneira geral, geral
         Bm
Estamos vivos
                Em
Aqui agora brilhando com um cristal
       Bm
Somos luzes
                Em
Que faíscam no caos
   Bm                        Em
E vozes abrindo um grande canal

       Bm
Nós estamos na linha do tiro
            Em
Caçando os dias em horas vazias
          Bm
Vizinhos do cão
                       Em
Mas sempre rindo e cantando

Nunca em vão

            Bm
Uma doce família

Que tem a mania
              Em
De achar alegria

Motivo e razão
            Bm
Onde dizem que não
             Em
Aí que tá a mágica, meu irmão

           (Groove 1)
Tá aqui e agora

No ar que rodeia

No som que nos cerca

No olho que vê
                  Bm
E não consegue tocar
                Em
Aí que tá o segredo, meu irmão

              Bm
Que pulsa no peito

Que sente e não julga
             Em
Que tira do sério

E ascende um na cidade
                 Bm
E não dá pra explicar
                Em
Aí que tá o mistério, meu irmão, eh


 Bm                Em
Descobrir o que liberta o sol
         Bm
Que faz buraco
              Em
Furação do escuro, escuro, escura
Bm                Em
Esquecer ao menos uma noite
           Bm
O medo, o mal real
          Em
Que te segura


       Bm
Nós estamos na linha do tiro
            Em
Caçando os dias em horas vazias
             Bm
Vizinhos do cão, cão, cão
                       Em
Mas sempre rindo e cantando

Nunca em vão

            Bm
Uma doce família

Que tem a mania
              Em
De achar alegria

Motivo e razão
            Bm
Onde dizem que não
             Em
Aí que tá a mágica, meu irmão

               Bm
Leve e auto-reverse

Plugado no peito
                 Em
Mostrando outro jeito

Batendo de frente
             Bm                   Em
Com o bicho feroz, com o bicho feroz

               Bm
Leve e auto-reverse

Plugado no peito
                 Em
Mostrando outro jeito

Batendo de frente
             Bm                   Em
Com o bicho feroz, com o bicho feroz

(Bm  Em) 4x

 Bm                Em
Pense quanto impulso
                Bm               Em
Vem de tudo ao seu redor, seu redor
 Bm             Em
Pense tudo quanto
          Bm             Em
Pode ser melhor, ser melhor

Base solo:

(Bm  Em) 4x


   Bm                      Em
Felizes, de uma maneira geral, geral
         Bm
Estamos vivos
                      Em
Brilhando com um cristal
       Bm
Somos luzes
                Em
Que faíscam no caos
   Bm                        Em
E vozes abrindo um grande canal

       Bm
Nós estamos na linha do tiro
            Em
Caçando os dias em horas vazias
             Bm
Vizinhos do cão, cão, cão
            Em
Rindo e cantando

Nunca em vão

 Bm
Doce família

Que tem a mania
      Em
De achar alegria

Motivo e razão
      Bm
Onde dizem que não
             Em
Aí que tá a mágica, meu irmão

(Bm  Em  Bm)

             Em
Aí que tá a mágica, meu irmão

(Bm  Em) 4x

Ritmo I:
 
Parte 01 de 02


   Bm
E|------------------------------------------|
B|-3-3-3-3----------------------------------|
G|-4-4-4-4----------------------------------|
D|-4-4-4-4---0---0---0-4--------------------|
A|-2-------2---2---2------------------------|
E|------------------------------------------|


Parte 02 de 02


   Em
E|-0-0-0-0----------------------------------|
B|-0-0-0-0----------------------------------|
G|-0-0-0-0----------------------------------|
D|------------------------------------------|
A|---------------------3--------------------|
E|-0-------0h3p0-3h0-3----------------------|


Ritmo II (Principal):

Parte 01 de 02


   Bm
E|-----2-2----------------------------------|
B|-----3-3----------------------------------|
G|-4-4-4-4----------------------------------|
D|-4-4-4-4-------------3--------------------|
A|-2-2-----2-5-2-5-2-5----------------------|
E|------------------------------------------|


Parte 02 de 02


   Em
E|-----0-0----------------------------------|
B|-----0-0----------------------------------|
G|-----0-0----------------------------------|
D|-2-2-2-2----------------------------------|
A|-2-2-----------------3--------------------|
E|-0-0-----0-3-0-3-0-3----------------------|


Groove I:

Parte 01 de 02


   Bm
E|------------------------------------------|
B|------------------------------------------|
G|------------------------------------------|
D|----------------4-------------------------|
A|-2--2-5-2-5-2-5---------------------------|
E|------------------------------------------|


Parte 02 de 02

   Em
E|------------------------------------------|
B|------------------------------------------|
G|------------------------------------------|
D|-2----------------------------------------|
A|----------------3-------------------------|
E|----0-3-0-3-0-3---------------------------|


Solo:

Parte 01 de 04


E|----------------------------------------------------|
B|----------------------------------------------------|
G|-4/6~-4h6-4h6-4h6-4h6p4-2-4----4/6-4h6-4h6-4h6~-----|
D|----------------------------4~----------------------|
A|----------------------------------------------------|
E|----------------------------------------------------|


Parte 02 de 04


E|----------------------------------------------------|
B|----------------------------------------------------|
G|-4h6-4h6-4h6-4h6p4-2-4------------------------------|
D|-----------------------4~---------------------------|
A|----------------------------------------------------|
E|----------------------------------------------------|


Parte 03 de 04


E|----------------------------------------------------|
B|----------------------------------------------------|
G|-----2-4-1---1-4-1---1-1h2-1------------------------|
D|-2h4-------2-------2---------4-2h4------------------|
A|----------------------------------------------------|
E|----------------------------------------------------|


Parte 04 de 04


E|----------------------------------------------------|
B|----------------------------------------------------|
G|-----2-4-1-----1-4-1---1-1h2-1----------------------|
D|-2h4-------4p2-------2---------4-2h4-2h4-2h4--------|
A|----------------------------------------------------|
E|----------------------------------------------------|
  • 1
  • 2
  • 3
  • 4
  • 5
  • 6
  • 7
  • 8
  • 9
  • 10
  • 11
  • 12
    Acordes para:

      0 comentários

        mostrar mais comentários

        Conseguiu tocar?

        34tocaram0ainda não

        Grave um vídeo tocando Auto-reverse e mande pra gente!

        00:00 / 00:00
        outros vídeos desta música
        repetirqualidadeautomática
        • automática
        Outro vídeos desta música
          Capítulos
          • Tocando a música
          • Dicas Iniciais / Equipamentos
          • Tocando a Introdução
          • Ritmo 1 - Parte 1 de 2
          • Ritmo 1 - Parte 2 de 2
          • Ritmo 2 - Parte 1 de 2
          • Ritmo 2 - Parte 2 de 2
          • Tocando a Primeira Parte
          • Groove 1 - Parte 1 de 2
          • Groove 1 - Parte 2 de 2
          • Tocando o Solo
          • Solo - Parte 1 de 4
          • Solo - Parte 2 de 4
          • Solo - Parte 3 de 4
          • Solo - Parte 4 de 4
          • Encerramento
          • Ficha Técnica
          00:00 / 00:00
          automática
          • automática
          Acordes para:violão e guitarra
          dificuldadeexibiçõescontribuições
          1 versão de Tab de baixoexibiçõescontribuições
          1 versão de Guitar Proformatodownloadscontribuição
          fecharplay/pause subir/descer velocidade
            acordes
            fechar
            OK
            Feedback