Cifra Club

Me Deixa

O Rappa

Tab de baixo: Principal
exibições 39.626
[Introdução]

G|--------------------------------------------|
D|--------------------------------------------|
A|-----5-5-----5-5-----5-5-----5-5-----5------|
E|-5-5-----5-5-----5-5-----5-5-----5-5--------|
B|--------------------------------------------|

G|--------------------------------------------|
D|--------------------------------------------|
A|-3---3---3---3--3-3----3---3---3--5-5-------|
E|---5---5---5---------5---5---5--------------|
B|--------------------------------------------|


[Primeira parte]

Podem avisar, pode avisar...

Parte 1 de 2 (2x)
G|--------------------------------------------|
D|--------------------------------------------|
A|-----5-5-----5-5-----5-5-----5--------------|
E|-5-5-----5-5-----5-5-----5-5----------------|
B|--------------------------------------------|

G|--------------------------------------------|
D|--------------------------------------------|
A|-3---3---3---3--3-3----3---3---3--5-5-------|
E|---5---5---5---------5---5---5--------------|
B|--------------------------------------------|

G|--------------------------------------------|
D|--------------------------------------------|
A|-----5-5-----5-5-----5-5-----5--------------|
E|-5-5-----5-5-----5-5-----5-5----------------|
B|--------------------------------------------|

G|--------------------------------------------|
D|--------------------------------------------|
A|-3---3---3---3--5-5-----5-5------5-5--------|
E|---5---5---5--------5-5------5-5------------|
B|--------------------------------------------|

Parte 2 de 2
G|--------------------------------------------|
D|--------------------------------------------|
A|-----5-5-----5-5-----5-5-----5--------------|
E|-5-5-----5-5-----5-5-----5-5----------------|
B|--------------------------------------------|

G|--------------------------------------------|
D|--------------------------------------------|
A|-3---3---3---3--3-3----3---3---3------------|
E|---5---5---5---------5---5---5--------------|
B|--------------------------------------------|


[Refrão]

Me deixa,Que hoje eu tô de bobeira …

Parte 1 (8x)
G|--------------------------------------------|
D|--------------------------------------------|
A|--------------------------------------------|
E|--------------------------------------------|
B|-3-3-3-1--3-3-3-3--3-3-3-3------------------|


[Introdução 2]

G|--------------------------------------------|
D|--------------------------------------------|
A|-5------5-5-----5-5-----5-5-----5-----------|
E|----5-5-----5-5-----5-5-----5-5-------------|
B|--------------------------------------------|

G|--------------------------------------------|
D|--------------------------------------------|
A|-3---3---3---3--3-3----3---3---3--5-5-------|
E|---5---5---5---------5---5---5--------------|
B|--------------------------------------------|


[Segunda parte]

Hoje eu desafio o mundo sem sair da minha...

Parte 1 de 2 
G|--------------------------------------------|
D|--------------------------------------------|
A|-----5-5-----5-5-----5-5-----5--------------|
E|-5-5-----5-5-----5-5-----5-5----------------|
B|--------------------------------------------|

G|--------------------------------------------|
D|--------------------------------------------|
A|-3---3---3---3--5-5-----5-5------5-5--------|
E|---5---5---5--------5-5------5-5------------|
B|--------------------------------------------|

G|--------------------------------------------|
D|--------------------------------------------|
A|-----5-5-----5-5-----5-5-----5--------------|
E|-5-5-----5-5-----5-5-----5-5----------------|
B|--------------------------------------------|

G|--------------------------------------------|
D|--------------------------------------------|
A|-3---3---3---3--3-3----3---3---3--5-5-------|
E|---5---5---5---------5---5---5--------------|
B|--------------------------------------------|

Parte 2 de 2
G|--------------------------------------------|
D|--------------------------------------------|
A|-----5-5-----5-5-----5-5-----5--------------|
E|-5-5-----5-5-----5-5-----5-5----------------|
B|--------------------------------------------|

G|--------------------------------------------|
D|--------------------------------------------|
A|-3---3---3---3--5-5-----5-5------5-5--------|
E|---5---5---5--------5-5------5-5------------|
B|--------------------------------------------|

G|--------------------------------------------|
D|--------------------------------------------|
A|-----5-5-----5-5-----5-5-----5--------------|
E|-5-5-----5-5-----5-5-----5-5----------------|
B|--------------------------------------------|

G|--------------------------------------------|
D|--------------------------------------------|
A|-3---3---3---3--3-3----3---3---3------------|
E|---5---5---5---------5---5---5--------------|
B|--------------------------------------------|


[Refrão 2]

Me deixa,Que hoje eu tô de bobeira …

Parte 1 (8x)
G|--------------------------------------------|
D|--------------------------------------------|
A|--------------------------------------------|
E|--------------------------------------------|
B|-3-3-3-1--3-3-3-3--3-3-3-3------------------|


[Introdução 3]

G|--------------------------------------------|
D|--------------------------------------------|
A|-5------5-5-----5-5-----5-5-----5-----------|
E|----5-5-----5-5-----5-5-----5-5-------------|
B|--------------------------------------------|

G|--------------------------------------------|
D|--------------------------------------------|
A|-3---3---3---3--3-3----3---3---3--5-5-------|
E|---5---5---5---------5---5---5--------------|
B|--------------------------------------------|


[Terceira parte]

Hoje eu desafio o mundo sem sair da minha...

Parte 1 de 2 
G|--------------------------------------------|
D|--------------------------------------------|
A|-----5-5-----5-5-----5-5-----5--------------|
E|-5-5-----5-5-----5-5-----5-5----------------|
B|--------------------------------------------|

G|--------------------------------------------|
D|--------------------------------------------|
A|-3---3---3---3--5-5-----5-5------5-5--------|
E|---5---5---5--------5-5------5-5------------|
B|--------------------------------------------|

G|--------------------------------------------|
D|--------------------------------------------|
A|-----5-5-----5-5-----5-5-----5--------------|
E|-5-5-----5-5-----5-5-----5-5----------------|
B|--------------------------------------------|

G|--------------------------------------------|
D|--------------------------------------------|
A|-3---3---3---3--3-3----3---3---3--5-5-------|
E|---5---5---5---------5---5---5--------------|
B|--------------------------------------------|

Parte 2 de 2
G|--------------------------------------------|
D|--------------------------------------------|
A|-----5-5-----5-5-----5-5-----5--------------|
E|-5-5-----5-5-----5-5-----5-5----------------|
B|--------------------------------------------|

G|--------------------------------------------|
D|--------------------------------------------|
A|-3---3---3---3--5-5-----5-5------5-5--------|
E|---5---5---5--------5-5------5-5------------|
B|--------------------------------------------|

G|--------------------------------------------|
D|--------------------------------------------|
A|-----5-5-----5-5-----5-5-----5--------------|
E|-5-5-----5-5-----5-5-----5-5----------------|
B|--------------------------------------------|

G|--------------------------------------------|
D|--------------------------------------------|
A|-3---3---3---3--3-3----3---3---3------------|
E|---5---5---5---------5---5---5--------------|
B|--------------------------------------------|


[Refrão 3]

Me deixa,Que hoje eu tô de bobeira …

Parte 1 de 2 (16x)
G|--------------------------------------------|
D|--------------------------------------------|
A|--------------------------------------------|
E|--------------------------------------------|
B|-3-3-3-1--3-3-3-3--3-3-3-3------------------|

Parte 2 de 2 ( 8x + fade out )                          
                          P
G|--------------------------------------------|
D|------------------------3-------------------|
A|--------------------------------------------|
E|--------------------------------------------|
B|-3-3-3-1--3-3-3-3--3-3----------------------|

0 comentários

mostrar mais comentários

Conseguiu tocar?

4 tocaram 0 ainda não

Grave um vídeo tocando Me Deixa e mande pra gente!

00:00 / 00:00
outros vídeos desta música
repetir qualidade Automático
Outros vídeos desta música
00:00 / 00:00
Automático
Capítulos
  • Tocando a música
  • Apresentação / Equipamentos
  • TAB - Introdução - Parte 1 de 2
  • TAB - Introdução - Parte 2 de 2
  • TAB - Primeira parte - Parte 1 de 2
  • TAB - Primeira parte - Parte 2 de 2
  • TAB - Refrão 1
  • TAB - Introdução 2
  • TAB - Segunda parte - Parte 1 de 2
  • TAB - Segunda parte - Parte 2 de 2
  • TAB - Refrão 3 - Parte 1 de 2
  • TAB - Refrão 3 - Parte 2 de 2
  • Encerramento
OK