Cifra Club

Tribunal de Rua

O Rappa

Tab de baixo: Principal
G|--------------------------------------------------------
D|---------------------------------------------------------
A|---------------------------------------------------------
E|-3--3-3-3--3--3-3-3--3---3-3-3--3-3-3-3--3-3--3-3--3-3
                                                              
G|---------------------------------------------------------
D|---------------------------------------------------------
A|---------------------------------------------------------
E|-3h4--3h4--3h4--3h4--3h4--3h4--3h4--3h4--3h4--3h4--3h4--3h4


(basta ouvir a musica pra saber as partes em q muda)

____________________________________________________________________________

Final

G|--------------------------------------------
D|---------------------------------------------
A|-----------------2-5-2-------------------------
E|-3-4-4-4-4--4-4--------5-4-3-2------------------

G|---------------------------------------------------------
D|---------------------------------------------------------
A|---------------------------------------------------------
E|-3-4-4-4-4--4-4--4-4-------------------------------------

_______________________________________________________
Contribuição: Daniel Ferreira(psicopata.d@bol.com.br)
00:00 / 00:00
Outros vídeos desta música
Repetir
Outros vídeos desta música
Composição de Marcelo Yuka
13.285 exibições

0 comentários

Ver todos os comentários

Conseguiu tocar?

0 Tocaram 0 Ainda não

Grave um vídeo tocando Tribunal de Rua e nos envie!

Entre para oCifra Club PRO

Tenha acesso a benefícios exclusivos no App e no Site

  • Chega de anúncios

  • Prioridade de compra em lançamentos

  • Mais recursos no app do Afinador

  • Atendimento Prioritário

  • Descontos nos produtos Cifra Club

  • Ajude a produzir mais conteúdo

00:00 / 00:00

Cifra Club Pro

Aproveite o Cifra Club com benefícios exclusivos e sem anúncios
Cifra Club Pro
Aproveite o Cifra Club com benefícios exclusivos e sem anúncios
OK