Notificações Amigos pendentes

      O Surto

      Tudo é Possível

      353 exibições
      (solo)
       C|----|-x-------------------|----------------------|(3x)
       H|-x-x|---x-x-x---x---x-x-x-|x-x-x-x---x---x---x-x-|
      sd|----|-----0---0-------0---|----0---0---0-----0---|
      bd|----|-0-0---------0-------|0-0-------------0-----|
      
       C|-x-x-x-x---x---x-x-x-|-----------------|
       H|-----0---0-------0---|-----------------|
      sd|---------------------|-0-0-0-0-0-0-0-0-|
       f|---------------------|-0-0-0-0-0-0-0-0-|
      bd|-0-0---------0-------|-----------------|
      
      (intro)
       C|x-------|(8x)|-x--------|(6x)|-----------| |---------|
       H|--x-x-x-|    |---x--x-x-|    |---x-x-x-x-| |-x-x-x-x-| |-0-0|
      sd|----0---|    |------0---|    |-0-----0---| |-----0---|
      bd|0-------|    |-0-0------|    |---0-0-----| |-0-0-----|
      
      Refrão:
       C|-x-------------------|----------------------|(3x)
       H|---x-x-x---x---x-x-x-|x-x-x-x---x---x---x-x-|
      sd|-----0---0-------0---|----0---0---0-----0---|
      bd|-0-0---------0-------|0-0-------------0-----|
      
       H|-x-x-x-x---x---x-x---|-------|----------------|
      sd|-----0---0-----0-----|-0-0-0-|----------------|
      t1|---------------------|-------|-0-0-0-0--------|
      t2|---------------------|-------|---------0-0----|
       f|---------------------|-------|--------------0-|
      bd|-0-0---------0-------|-------|----------------|
      
       C|-x-----------------|(5x)|-----------------|------------------------|
       r|---x-x-x---x---x-x-|    |-----------------|------------------------|
      sd|-----0---------0---|    |-0-0-0-0-0-0-0-0-|------------------------|
      t1|-------------------|    |-----------------|-0-----0----------------|
      t2|-------------------|    |-----------------|----------0-0-0-0-------| 
       f|-------------------|    |-0-0-0-0-0-0-0-0-|---0-0------------0-0---|
      bd|-0-0-----0---0-----|    |-----------------|----------------------0-|
      
       C|x-------|(8x)|-x--------|(6x)|-----------| |---------|
       H|--x-x-x-|    |---x--x-x-|    |---x-x-x-x-| |-x-x-x-x-| |-0-0|
      sd|----0---|    |------0---|    |-0-----0---| |-----0---|
      bd|0-------|    |-0-0------|    |---0-0-----| |-0-0-----|
      
      (refrão)
       C|-x-------------------|----------------------|(3x)
       H|---x-x-x---x-----x-x-|x-x-x-x---x---x---x-x-|
      sd|-----0---0-------0---|----0---0---0-----0---|
      bd|-0-0---------0-------|0-0-------------0-----|
      
       H|-x-x-x-x---x---x-x---|-------|----------------|
      sd|-----0---0-----0-----|-0-0-0-|----------------|
      t1|---------------------|-------|-0-0-0-0--------|
      t2|---------------------|-------|---------0-0----|
       f|---------------------|-------|--------------0-|
      bd|-0-0---------0-------|-------|----------------|
      
       C|-x-----------------|(5x)|-----------------|------------------------|
       r|---x-x-x---x---x-x-|    |-----------------|------------------------|
      sd|-----0---------0---|    |-0-0-0-0-0-0-0-0-|------------------------|
      t1|-------------------|    |-----------------|-0-----0----------------|
      t2|-------------------|    |-----------------|----------0-0-0-0-------| 
       f|-------------------|    |-0-0-0-0-0-0-0-0-|---0-0------------0-0---|
      bd|-0-0-----0---0-----|    |-----------------|----------------------0-|
      
       C|x-------|(8x)|-x--------|(6x)|-----------| |---------|
       H|--x-x-x-|    |---x--x-x-|    |---x-x-x-x-| |-x-x-x-x-| |-0-0|
      sd|----0---|    |------0---|    |-0-----0---| |-----0---|
      bd|0-------|    |-0-0------|    |---0-0-----| |-0-0-----|
      
      (refrão)
       C|-x-------------------|----------------------|(3x)
       H|---x-x-x---x---x-x-x-|x-x-x-x---x---x---x-x-|
      sd|-----0---0-------0---|----0---0---0-----0---|
      bd|-0-0---------0-------|0-0-------------0-----|
      
       H|-x-x-x-x---x---x-x---|-------|----------------|
      sd|-----0---0-----0-----|-0-0-0-|----------------|
      t1|---------------------|-------|-0-0-0-0--------|
      t2|---------------------|-------|---------0-0----|
       f|---------------------|-------|--------------0-|
      bd|-0-0---------0-------|-------|----------------|
      
       C|-x-------------------|----------------------|(3x)
       H|---x-x-x---x---x-x-x-|x-x-x-x---x---x---x-x-|
      sd|-----0---0-------0---|----0---0---0-----0---|
      bd|-0-0---------0-------|0-0-------------0-----|
      
       H|-x-x-x-x---x---x-x---|-------|
      sd|-----0---0-----0-----|-0-0-0-|
      t1|---------------------|-------|
      t2|---------------------|-------|
       f|---------------------|-------|
      bd|-0-0---------0-------|-------|
      
       C|-x-x-x-x---x-------x-|x-x-x-x---x---x---x-x-|(3x)
       H|---------------------|----------------------|
      sd|-----0---0-------0---|----0---0---0-----0---|
      bd|-0-0---------0-------|0-0-------------0-----|
      
       H|-x-x-x-x---x---x-x---|---------|
      sd|-----0---0-----0-----|-0-------|
      t1|---------------------|---0-----|
      t2|---------------------|-----0---|
       f|---------------------|-------0-|
      bd|-0-0---------0-------|---------|
        Composição: Kiko ZambianchiColaboração e revisão:
        • Pedro988

        Comentários 0

        140 .
        140 cancelar

        conseguiu tocar?

        Maycon Oliveira de Almeida555 visualizações
        ver covers de outras músicas »
        0:00 / 0:00

        Capítulos

          1 versão de violão dificuldade exibições contribuição e correção
          1 versão de guitarra dificuldade exibições contribuição e correção
          1 versão de cavaco dificuldade exibições contribuição e correção
          1 versão de teclado dificuldade exibições contribuição e correção
          1 versão de baixo exibições contribuição e correção
          1 versão de bateria exibições contribuição e correção
          play/pausefechar subir/descer velocidade
          6ª corda E5ª corda A4ª corda D3ª corda G2ª corda B1ª corda E
            acordes
            publicidade
            fechar
            ok