Da Entrega

O Teatro Mágico

Composição de: Daniel Santiago / Fernando Anitelli
tom: G
Intro:
Se toca a Intro. durante a parte ( 1 ) e ( 3 )
E|-----------------------------------------------
B|--1--3--5--3--1--3-------1--3--8--7--1--3------
G|--------------------0----------------------0---
D|-----------------------------------------------
A|--0--2--3--2--0--2-------0--2--7--5--0--2------
E|--------------------3----------------------3---

Parte 1:
Apoderar-se de si
Recombinando atos
Não sou quem estou aqui
Sou um instante passo

Tocar essa parte durante a parte ( 2 ) e ( 4 ):
E|--------------------------------------------
B|--1--5--3--8--0--5--0-----1--5--3--8--5--7--
G|-----------------------2--------------------
D|--------------------------------------------
A|--0--3--2--7--2--3--2--0--0--3--2--7--3--5--
E|--------------------------------------------

Parte 2:
Cada um, cada qual
Resgatar o júbilo
Existir, ser plural
Repartir o acúmulo

Parte 3:
Apoderar-se de si
Remediando passos

Parte 4:
Convergir no olhar
Nosso brio e fúria
Conceber, conservar
Aguerrida entrega

G     C     Em    D/F#
Nesse nosso desbravar
Am      C     D   G   C   Em   D/F#  Am
Emanemo-nos amor
C     D    G    C   Em  D/F#  Am
Até quando suceder
C     D   G   C  Em  D/F#  Am
De silenciar
           C      D    G  D/F#  C
O que nos trouxe até aqui
D
Nada melhor virá...
Página 1 / 1

Letras e título
Acordes e artista

resetar configurações
OK