Cifra Club

Da Entrega

O Teatro Mágico

Tab de baixo: Principal
Verso:

G|---------------------------------------------
D|---------------------------------------------
A|--0--2--3--2--0--2-------0--2--7--5--0--2----
E|--------------------3----------------------3-

Ponte:

G|-------------------------------------------
D|-------------------------------------------
A|--0--3--2--7--2--3--2--0--0--3--2--7--3--5-
E|-------------------------------------------

Refrão:

G|-------------------------------------------------------
D|-------------------------------------------------------
A|--3--3--7--5--0--3--5-----3--7--5--0--3--7--5--0--3--5-
E|-----------------------3-------------------------------

G|-------------------------------------------------
D|-------------------------------------------------
A|--3--5--3-----3--7--5--0--3--5--3-----3--7--5--0-
E|-----------3-----------------------3-------------

G|------------------
D|------------------
A|--3--5----5--3--5-
E|--------3---------
00:00 / 00:00
Outros vídeos desta música
Repetir
Outros vídeos desta música
Composição de Daniel Santiago / Fernando Anitelli
Colaboração e revisão:
  • Lahis
256 exibições

0 comentários

Ver todos os comentários

Conseguiu tocar?

0 Tocaram 0 Ainda não

Grave um vídeo tocando Da Entrega e nos envie!

Entre para oCifra Club PRO

Tenha acesso a benefícios exclusivos no App e no Site

  • Chega de anúncios

  • Prioridade de compra em lançamentos

  • Mais recursos no app do Afinador

  • Atendimento Prioritário

  • Descontos nos produtos Cifra Club

  • Ajude a produzir mais conteúdo

00:00 / 00:00

Cifra Club Pro

Aproveite o Cifra Club com benefícios exclusivos e sem anúncios
Cifra Club Pro
Aproveite o Cifra Club com benefícios exclusivos e sem anúncios
OK