Ai Ai, Como Eu Me Iludo

O Terno

Composição de: Felipe o Rot
tom: G
[Intro] Bb

Eb                  F
Ai, ai, como eu me iludo
Ab7               Eb
Dessa vez eu viajei
Eb                 F
Meu Deus confundi tudo
Ab7                 Eb
Nossa como eu vacilei

        Db               Ab
Porque eu já fiz isso milhares de vezes
     Eb                  F7M
Como é que eu nunca aprendi
Db                  Ab             
A não gostar das pessoas tão rápido assim
         
                     Eb
E|-------------------6-----------|
B|----------------------8--------|
G|----------------------8--------| (3x)
D|-------1h3--1---------8--------|
A|-----3--------3----6-----------|
E|-1-4---------------------------|

Eb                   F
Ai, ai, como eu me iludo
Ab7               Eb
Dessa vez eu viajei
Eb                  F
Meu Deus confundi tudo
Ab7                 Eb
Nossa como eu vacilei

        Db               Ab
Porque eu já fiz isso milhares de vezes
     Eb                  F7M
Como é que eu nunca aprendi
Db                   Ab             
A não gostar das pessoas tão rápido assim                
                   
                     Eb
E|-------------------6-----------|
B|----------------------8--------|
G|----------------------8--------| (3x)
D|-------1h3--1---------8--------|
A|-----3--------3----6-----------|
E|-1-4---------------------------|

   Cm
Eu pensei que ia mudar
                   Eb
E que estava bem claro
 Cm                              Eb
Depois dos anos e anos da ultima vez
Cm                                    Eb
Mas quando vejo me pego fazendo até planos
F
De apresentar pro meus pais
Ab                 Ab7
To vendo filme demais

( Eb  F  Ab7  Eb )
( Eb  F  Ab7  Eb )

Eb                 F
Af, como eu me iludo
Ab7               Eb
Dessa vez eu viajei
Eb                  F
Meu Deus confundi tudo
Ab7                 Eb
Nossa como eu vacilei

        Db               Ab
Porque eu já fiz isso milhares de vezes
     Eb                  F7M
Como é que eu nunca aprendi
Db                  Ab               Eb
A não gostar das pessoas tão rápido assim
Db                  Ab               Eb 
A não gostar das pessoas tão rápido assim
Db                 Ab             
A não gostar das pessoas tão rápido assim
                     
E|------------------------------|
B|------------------------------|
G|------------------------------| (3x)
D|-------1h3--1-----------------|
A|-----3--------3---------------|
E|-1-4--------------------------|

[Final] Eb
Página 1 / 1

Letras e título
Acordes e artista

resetar configurações
OK