Cifra Club

Aprenda

Eu Não Preciso de Ninguém

O Terno

Cifra: Principal (violão e guitarra)
Tom: G
[Intro] D7(9+)

                       D7  C
Eu não preciso de ninguém
                        D7  C
Eu não preciso de ninguém
F                    G
E é só comigo que eu preciso me dar bem

E|-------------------------------------|
A|---------------------10--------------|
D|-------10------10-12----12-10--------|
G|-12-12-----12-----------------10-12--|
B|-------------------------------------|
E|-------------------------------------|

                       D7  C
Eu não preciso de ninguém
                       D7  C
Eu não preciso de ninguém
         F             G               D7 C7
Já sei fazer meus afazeres muito bem

( C7  C#7 )

D7
O Zé que era um cara bacana
                                 Am11/D
Matou a esposa e o amante também
D7
O Julio seguindo a amada
                                  Am11/D
Perdeu a cabeça no trilho do trem
A
E o Pedro, e o Sergio e o Carlos
                             G
Agora só vivem a choramingar
A
Porque tem azar no amor
                                       G
E no jogo o que resta é só se lamentar

E|--------3-------------3-------------3-------------3--------|
A|------3---3---------3---3---------3---3---------3---3------|
D|----4-------4-----4-------4-----4-------4-----4-------3----|
G|--5-------------4-------------2-------------0--------------|
B|-----------------------------------------------------------|
E|-----------------------------------------------------------|

G                 G/F#
Então eu não vejo motivo
              G/E             G/D
Pra ficar com ela, você ou ninguém

E|-------------------------|
A|-------------------------|
D|-------------------------|
G|------------2h4p2--------|
B|--0---0h2h4-------4-2-0--|
E|-------------------------|

     E           B5 C5 C#5 D5  D7
Pois sozinho eu vou muito bem

E|-10--10--12/14-13-12-10--|
A|-10--10------------------|
D|-11--11--12/14-13-12-11--|
G|-------------------------|
B|-------------------------|
E|-------------------------|

                        D7  C
Eu não preciso de ninguém
                        D7  C
Eu não preciso de ninguém
F                  G
Essa história não parece fazer bem
                       D7  C
Eu não preciso de ninguém
                       D7  C
Eu não preciso de ninguém
F                 G                    D7 C7
E nem adianta vir tentar me convencer

( C7  C#7 )

D7
A Ana levou meu cachorro
                               Am11/D
Meu jogo de damas e o televisor
D7
A Rita mandou telegrama
                                    Am11/D
Dizendo que amava alguém no Equador
A
E a Bia errava o meu nome
                                   G
Pedia desculpa e errava outra vez
A
E eu perdoava uma a uma
                                    G
Dizendo faz parte, acontece meu bem

G
Por isso eu insisto
   G/F#
Em viver tão sozinho
  G/E              G/D
E dizer que isso é solução
         E     B5 C5 C#5 D5  D7
Pois não tenho mais coração
Composição de Guilherme D'Almeida / Martim Bernardes
Colaboração e revisão:
  • Joao Vicente
  • Kennet Anderson
  • Gabriel Paula
6.871 exibições
    • ½ Tom
    • A
    • Bb
    • B
    • C
    • Db
    • D
    • Eb
    • E
    • F
    • F#
    • G
    • Ab
  • Adicionar à lista

    0 comentários

    Mostrar mais comentários

    Conseguiu tocar?

    0 Tocaram 1 Ainda não

    Grave um vídeo tocando Eu Não Preciso de Ninguém e mande pra gente!

    00:00 / 00:00
    outros vídeos desta música
    repetir qualidade Automático
    Outros vídeos desta música
    00:00 / 00:00
    Automático

    Cifra Club Pro

    Aproveite o Cifra Club com benefícios exclusivos e sem anúncios
    Cifra Club Pro
    Aproveite o Cifra Club com benefícios exclusivos e sem anúncios
    OK