O Terno

tom: G
E|---------------------------------------------------|
B|---------------------------------------------------|
G|---------------------------------------------------|
D|---------------------------------------------------|
A|----9--7--5--3--9--3--2--0--5--2--0----------------|
E|-------------------------------------3--7--3--2----|

E|-----------------------------------------|
B|-----------------------------------------|
G|-----------------------------------------|
D|-----------------------------------------|
A|------5/7-7-5-7-----5/7-7-5-7------------|
E|----3------------5-----------------------|

D7    C  D7 C D7 C  D7 C
Quando a vida dá um nó
D7  C D7 C  D7  C  D7
Não adianta sentir dó
         G   Am
De si mesmo

( G  Am )

 G              Am
Há uma chance de um novo começo
 G              Am
Um tempo bom pra fazer diferente
 G              Am
A gente pensa que sabe da gente
 G              Am
Mas nunca é tarde pra abrir nossa mente

D7    C  D7 C D7 C  D7 C
Quando a vida dá um nó
D7  C D7 C  D7  C  D7
Não adianta sentir dó
         G   Am
De si mesmo

G              Am
O sol voltou pra esquentar sua vida
 G              Am
Há um olá depois da despedida
 G                 Am
Depois de tudo que você chorou
 G                Am
Lavou a alma e encontrou o amor

D7    C  D7 C D7 C  D7 C
Quando a vida dá um nó
D7  C D7 C  D7  C  D7
Não adianta sentir dó
         G   Am
De si mesmo

( G Am )
Página 1 / 1

Letras e título
Acordes e artista

resetar configurações
OK