3 Am

Oar

tom: A
#This file is the author's own work and represents their interpretation of the#
#song. You may only use this file for private study, scholarship, or research.#


Transcribed by: Aaron Stark
Email: S*

-5---5---7--------------------------------------------------------------------|
-5---6---8--------------------------------------------------------------------|
-6---7---9--------------------------------------------------------------------|
-7---7---9--------------------------------------------------------------------|
-7---5---7--------------------------------------------------------------------|
-5----------------------------------------------------------------------------|
 Intro

-5-5---10---12----------------------------------------------------------------|
-5-5---10---12----------------------------------------------------------------|
------------------------------------------------------------------------------|
------------------------------------------------------------------------------|
------------------------------------------------------------------------------|
------------------------------------------------------------------------------|
 Verse

-5---5---7--------------------------------------------------------------------|
-5---6---8--------------------------------------------------------------------|
-6---7---9--------------------------------------------------------------------|
-7---7---9--------------------------------------------------------------------|
-7---5---7--------------------------------------------------------------------|
-5----------------------------------------------------------------------------|
 Chourus- Strum chords      Solo is in A minor on high strings
Página 1 / 1

Letras e título
Acordes e artista

resetar configurações
OK