59th Street Bridge Song Feelin Groovy

Oar

tom: D
O.A.R.
The 59th Street Bridge Song (Feelin' Groovy)

e------------------------|  Marc goes back and forth from picking to strumming
b-----1-----1-----1------|
g-------2-----0-----0----|
d---3-----2-----0--------|
a---------------------3--|
E------------------------|

e-------------------|
b---1---1---1---1---|
g---2---0---0---0---|
d---3---2---0---2---|
a-----------2---3---|
E-------------------|

Questions/Comments:
*
or
*
Página 1 / 1

Letras e título
Acordes e artista

resetar configurações
OK