Don't Look Back In Anger

Oasis

Composição de: Noel Gallagher
tom: C
[Intro] C  F7M/C  C  F7M/C

[Primeira Parte]

  C             C9/B         Am
Slip inside the eye of your mind
            E             F7M/C  G
Don't you know you might find
                    C   Am  G
A better place to play

 C             C9/B        Am  
You said that you'd never been
              E                 F7M/C  
But all the things that you've seen
G                    C   Am  G
  Will slowly fade away

[Pré-Refrão]

F                   Fm             C
  So I start a revolution from my bed
            F
'Cause you said the brains 
   Fm             C
I had went to my head
  F                Fm               C
Step outside, the summertime's in bloom
  G   
Stand up beside the fireplace
 E/G#
Take that look from off your face
 Am             G          F7M/C   G
You ain't ever gonna burn my heart out

[Refrão]

     C  C9/B      Am
And so Sally can wait
      E             F7M/C
She knows it's too late
          G          C  Am  G
As we're walking on by
     C     C9/B   Am  E
Her soul slides away
                F7M/C         G
But don't look back in anger!
             C  
I heard you say

( C9/B  Am  E  F7M/C  G  C  Am  G )

[Segunda Parte]

 C               C9/B           Am
Take me to the place where you go
       E       F7M/C  G 
Where nobody knows
                  C  Am  G
If it's night or day

  C                     C9/B
Please, don't put your life 
        Am
In the hands
      E           F7M/C  G
Of a rock'n'roll band
                      C  Am  G
Who'll throw it all away

[Pré-Refrão]

F                        Fm
  I'm gonna start a revolution 
         C
From my bed
            F
'Cause you said the brains 
   Fm             C
I had went to my head
  F               Fm               C
Step outside the summertime's in bloom
 G   
Stand up beside the fireplace
 E/G#
Take that look from off your face
        Am             G
'Cause you ain't ever gonna 
      F7M/C    G
Burn my heart out

[Refrão]

     C  C9/B      Am
And so Sally can wait
      E             F7M/C
She knows it's too late
          G          C  Am  G
As we're walking on by
     C     C9/B   Am  E
Her soul slides away
                F7M/C         G
But don't look back in anger!
             C  Am  G
I heard you say

[Solo] F  Fm  C  F  Fm  C  F  Fm
       G  E/G#  Am  G  F7M/C  G (Pausa)

[TAB - SOLO]

Parte 1 de 9
E|-----------------------------------------------------|
B|-----------------------------------------------------|
G|-7b9r7-7b9r7-7b9r7-5-------5-----5--7b9r7p5----5-7p5-|
D|---------------------5-5h7---5h7------------7--------|
A|-----------------------------------------------------|
E|-----------------------------------------------------|

Parte 2 de 9
E|-----------------------------------------------------|
B|-----------------------------------------------------|
G|-7b9r7-7b9r7-7b9r-5----5---5-------------------------|
D|--------------------5--5h7-5-----5-------------------|
A|-----------------------------5/7---7\5-3-------------|
E|-----------------------------------------------------|

Parte 3 de 9
E|------------------------------------------8-8-8h10p8-|
B|-----------------------------------8-8/10------------|
G|---------------5-5-7b9-7p5---5-7/9-------------------|
D|-----------5h7-------------7-------------------------|
A|-----3-5/7-------------------------------------------|
E|-3h5-------------------------------------------------|

Parte 4 de 9
E|------8------8------8------8------8------------------|
B|-8h10---8h10---8h10---8h10---8h10--------------------|
G|-----------------------------------------------------|
D|-----------------------------------------------------|
A|-----------------------------------------------------|
E|-----------------------------------------------------|

Parte 5 de 9
E|-8h10p8-------8------8------8-10b12------------------|
B|---------8h10---8h10---8h10--------------------------|
G|-----------------------------------------------------|
D|-----------------------------------------------------|
A|-----------------------------------------------------|
E|-----------------------------------------------------|

Parte 6 de 9
E|-12----12----12----12-----12----12-12-12----12-12----|
B|-15b17-15b17-15b17-15b17--15b17-------15b17----------|
G|-----------------------------------------------------|
D|-----------------------------------------------------|
A|-----------------------------------------------------|
E|-----------------------------------------------------|

Parte 7 de 9
E|-----------------------17----------------------------|
B|-b17r15-13----13-13-15/17--17\15-13------------------|
G|-----------14----------------------------------------|
D|-----------------------------------------------------|
A|-----------------------------------------------------|
E|-----------------------------------------------------|

Parte 8 de 9
E|-12----12----12----12-12-------12-12-----------------|
B|-15b17-15b17-15b17-------15b17-----------------------|
G|-----------------------------------------------------|
D|-----------------------------------------------------|
A|-----------------------------------------------------|
E|-----------------------------------------------------|

Parte 9 de 9
E|-12----12-12-12----12-12---12\-----------------------|
B|-15b17-------15b17--------b17\-----------------------|
G|-----------------------------------------------------|
D|-----------------------------------------------------|
A|-----------------------------------------------------|
E|-----------------------------------------------------|

[Refrão Final]

     C  C9/B      Am
And so Sally can wait
      E             F7M/C
She knows it's too late
          G          C  Am  G
As we're walking on by
     C     C9/B   Am  E
Her soul slides away
                F7M/C         G
But don't look back in anger!
             C  Am  G
I heard you say

     C  C9/B      Am
And so Sally can wait
      E             F7M/C
She knows it's too late
          G          C  Am  G
As we're walking on by
     C     C9/B   Am
Her soul slides away
                F
But don't look back in anger!
            Fm
Don't look back in anger!
             C  G  Am  E  F
I heard you say
Fm                 C
   At least not today
Página 1 / 1

Letras e título
Acordes e artista

resetar configurações
OK