Cifra Club

Aprenda

Stop Crying Your Heart Out

Oasis

Cifra: Versão 4 (violão e guitarra)
tom: D
Intro:
E|----2-0-2---2-0--2---2-0-2------2-0-|
B|--3-------3--------3--------0-3-----|
G|------------------------------------|
D|------------------------------------|
A|------------------------------------|
E|------------------------------------|

Refrão:
E|--------2------------2-0----------2-0-----------2-----|
B|----3-5---3------3-5----------3-5-----2-----3-5----3--|
G|--2------------2------------2-------------2-----------|
D|------------------------------------------------------|
A|------------------------------------------------------|
E|------------------------------------------------------|

E|--------2------------2-0------------2-0---------|
B|----3-5---3------3-5-------3-5--5-3-----3-------|
G|--2------------2--------------------------------|
D|------------------------------------------------|
A|------------------------------------------------|
E|------------------------------------------------|

  Bm
Hold on
     D/A
Hold on
           E7
Don't be scared
                             G
You'll never change what's been and gone

           Bm
May your smile
      D/A
Shine on
            E7
Don\'t be scared
                  G             A/G
Your destiny may keep you warm.

(Riff 2)             D
'Cause all of the stars
            A
Are fading away
                Em
Just try not to worry
                      G
You'll see them someday
               D
Take what you need
                E
And be on your way
                      G   (Riff 1) A/G
And stop crying your heart out

    Bm
Get up (get up)
     D/A
Come on (come on)
              E
Why're you scared? (I'm not scared)
                              G
You'll never change what's been and gone

(Riff 2)             D
'Cause all of the stars
             A
Are fading away
                Em
Just try not to worry
                      G
You\'ll see them someday
               D
Take what you need
                E
And be on your way
                      G (Riff 1)   A/G
And stop crying your heart out

( D  A  Em  G  D  E7  G )

(Riff 2)             D
'Cause all of the stars
             A
Are fading away
                Em
Just try not to worry
                      G
You\'ll see them someday
                    D
Just take what you need
                A
And be on your way
                      Em       G
And stop crying your heart out

                      D
Where are all of the stars?
               A
We\'re fading away
              Em
Just try not worry
                  G
You\'ll see us someday
                    D                   A
Just take what you need and be on your way
                      Em       D
And stop crying your heart out
G                   Em       D
  Stop crying your heart out
G                   Em       D
  Stop crying your heart out
G                   Em       D     G (Riff)
  Stop crying your heart out
(harmonias naturais)
E|--------0---------0----------0------------0----|
B|-----7---------7----------7------0------7------|
G|--7--------7----------7--------------7---------|
D|-----------------------------------------------|
A|-----------------------------------------------|
E|-----------------------------------------------|

E|---------0--------0--------0-----------0----------|
B|------7--------7--------7-----0-----7-----0-------|
G|---7-------7---------7-----------7-------------7--|
D|--------------------------------------------------|
A|--------------------------------------------------|
E|--------------------------------------------------|
Composição de Noel Gallagher
Colaboração e revisão:
  • Lucas
5.059 exibições
  • Simplificar cifra
    • ½ Tom
    • A
    • Bb
    • B
    • C
    • Db
    • D
    • Eb
    • E
    • F
    • F#
    • G
    • Ab
  • Adicionar à lista

    0 comentários

    Ver todos os comentários
    00:00 / 00:00
    Outros vídeos desta música
    Repetir Qualidade Automático
    Outros vídeos desta música
    00:00 / 00:00
    Automático
    Capítulos
    • Início
    • Tocando a música
    • Acordes da Introdução e Primeira Parte
    • Tocando Introdução e Primeira Parte
    • Ensinando Ritmo da música
    • Ensinando Ritmo da Introdução
    • Acordes do Refrão
    • Tocando Refrão
    • Tocando Refrão e Parte Final
    • Encerramento

    Cifra Club Pro

    Aproveite o Cifra Club com benefícios exclusivos e sem anúncios
    Cifra Club Pro
    Aproveite o Cifra Club com benefícios exclusivos e sem anúncios
    OK