Up On The Downside

Ocean Colour Scene

Composição de: Ocean Colour Scene
tom: D
Tabbed by Sylvio Furtado

Main riff:

e---------------------------------
B--12--8-7--7-8-10--10------------
G----------------------9-8--8-9-11
D---------------------------------
A---------------------------------
E---------------------------------

Intro - G, A, D, B x2:

e--x--3--3--5---------x--5--7--7
B--3--3--3--5---------x--7--7--7
G--4--4--4--6------6--x--7--7--8
D--5--x--5--7----7----7--x--7--9
A--5--x--5--7--7------5--x--5--9
E--3--x--3--5---------5--x--5--7

e--x--3--3--5---------x--5--7slideto19
B--3--3--3--5---------x--7--7slideto19
G--4--4--4--6------6--x--7--7---------
D--5--x--5--7----7----7--x--7---------
A--5--x--5--7--7------5--x--5---------
E--3--x--3--5---------5--x--5---------

Em           A
This England made me,
D                          Bm
Between a war and a rocket span,
Em                     A
You've found a crib it saves me,
D                       Bm
And teach me wrong and right,
Em                A
And the world was talking,
D                        Bm
Never got it's chance to say,
Em                    A
When there's too much talking,
D                       Bm
Nobody hears a word you say

e-----------
B-----------
G--8--8-9-11
D-----------
A-----------
E-----------

Em        A
You won't see,
D                   Bm
So baby now I won't hear,
Em                A
It's blind communications,
D                         Bm
Only lasts throughout the year,
Em                     A 
And half of what we're saying,
D                  Bm
Is half-way to the truth,
Em                A 
It's blind communications,
D                       Bm
For a million heart and fools

Em       A 
I am a witness,
D                      Bm
To a land of a million fools,
Em          A 
All placing bets on life,
D                     Bm
And hate the ones you lose,
Em              A 
And all who're lonely,
D                       Bm
Never get the chance to say,
Em                    A 
The fact that one and only, 
D                          B
Will be the chance to even play

Chorus
------
Em        A
You won't see,
D                   Bm
So baby now I won't hear,
Em                A
It's blind communications,
D                         Bm
Only lasts throughout the year,
Em                      A 
And half of what we're saying,
D                  Bm
Is half-way to the truth,
Em                A 
It's blind communications,
D                       Bm
For a million heart and fools


Em    A 
Hello monday,
D                    Bm
The weekend's just a blur,
Em                A 
I've been burning bridges,
D                           Bm
and now I'm begging at your door,
Em         A 
So keep on working,
D                           Bm
Cos it's a chance for me to play,
Em                   A 
Cos there's too much talking,
D                            Bm
When you believe the words I say
Página 1 / 1

Letras e título
Acordes e artista

resetar configurações
OK