Sem Saída

Odair José

tom: D
[Intro]

E|-12--12h4p12----------------------------------------|
B|-------------15-13~--15b17r15-13-15~----------------|
G|----------------------------------------------------|
D|----------------------------------------------------|
A|----------------------------------------------------|
E|----------------------------------------------------|

E|-17b18--17b18r--15-17-------------------------------|
B|------------------------18b20r18-17-18--------------|
G|----------------------------------------------------|
D|----------------------------------------------------|
A|----------------------------------------------------|
E|----------------------------------------------------|

E|----------------20b22r20----------------------------|
B|-------------20----------20-17----------------------|
G|-------17-19----------------------------------------|
D|-17h19----------------------------------------------|
A|----------------------------------------------------|
E|----------------------------------------------------|

E|-20\18--18\13---------------------------------------|
B|---------------18\15--15\11--11\10--10~-------------|
G|----------------------------------------------------|
D|----------------------------------------------------|
A|----------------------------------------------------|
E|----------------------------------------------------|

E|-------10-13/17--17~--------------------------------|
B|-10-13----------------------------------------------|
G|----------------------------------------------------|
D|----------------------------------------------------|
A|----------------------------------------------------|
E|----------------------------------------------------|

F               C7                  F
Tentei te esquecer , mas não vejo saída,
         C7              Bb                     F
Não sei tirar você de tudo que eu tenho na minha vida.

F                                           C7
Eu vejo teu rosto em cada pessoa que passa na rua
       Bb                   C7                   F
Em todos lugares, em todos os bares no brilho da lua,
   F7                                         Bb
Meus olhos procuram achar teu sorriso em toda cidade
   F                        C7                 F
Nem mesmo sorrindo consigo fugir dessa minha saudade

F               C7                  F
Tentei te esquecer , mas não vejo saída,
         C7              Bb                     F
Não sei tirar você de tudo que eu tenho na minha vida. (2x)

 C                                             C7
Na hora do banho você é a água que molha o meu corpo
                   Bb           C7              F
Até na toalha eu sinto teus dedos me deixando louco.
                        F7                   Bb
No meio do sono eu sinto na boca o sabor do teu beijo,
  F                        C7                 F
De novo amanhece e acordo queimando de tanto desejo.

F               C7                  F
Tentei te esquecer , mas não vejo saída,
         C7              Bb                     F
Não sei tirar você de tudo que eu tenho na minha vida. (2x)
Página 1 / 1

Letras e título
Acordes e artista

resetar configurações
OK