Fix You

The Offspring

Composição de: The Offspring
tom: G
Introdução:
e|---------------------------------------------------------------------------------|
B|---------------------------------------------------------------------------------|
G|----4-----44-----4-----44------4-----44----4-----44-------4-----44----4-----44---|
D|-22---2-2-----22---2-2------22---2-2----22---2-2-------22---2-2----22---2-2------|
A|---------------------------------------------------------------------------------|
E|---------------------------------------------------------------------------------|

Riff #1:
e|--------------------------------------------------------------------------------
B|--------------------------------------------------------------------------------
G|----4-----44-----4-----44------4-----44-----4-----44---------------------------- 
D|-22---2-2-----22---2-2------------------------------------7-----77------7-------      
A|----------------------------22---2-2-----22---2-2------55---5-5-----55----5-5---     
E|--------------------------------------------------------------------------------      
                                                                                          
  -------------------------------|                                                          
  -------------------------------|                                                          
  -------------------------------| 2x
  77-----------------------------|
  -------7-----77-----7-----77---|
  ----55---5-5-----55---5-5------|

She wakes up
Rage and grace
Pulling me closer, pushing away
And me
The sharpest thorn on your vine
Twisting and turning
We're all intertwined

Broken wing
Empty glass
Words that scream and bounce right back
She says, you know
We'd all like to rearrange


Riff #2:
e|--------------------------|
B|--------------------------|
G|--------------------------|
D|-99999------77777---------|
A|-77777-9999-55555-77777---|
E|-------7777-------55555---|

        I wish I could fix you
        And make you how I want you
        I wish I could fix you
        And I wish you could fix me

        I wish I could heal you
        And mend where you are broken
        I wish I could heal you
        And I wish you could heal me


Ha la la la

Riff #3:
e|-7----7----7----7-----7----7----7----7-----5----5----5----5-----5----5----5----5------|
B|-7----7----7----7-----7----7----7----7-----5----5----5----5-----5----5----5----5------|
G|--------------------------------------------------------------------------------------|
D|--------------------------------------------------------------------------------------|
A|-7-77-7-77-7-77-7-77-----------------------5-55-5-55-5-55-5-55------------------------|
E|----------------------7-77-7-77-7-77-7-77-----------------------5-55-5-55-5-55-5-55---|

A beaming sunrise buries the night
The setting sun destroys the light
Then she says, baby, I've gotta get going
Cutting each other
Without even knowing

She sees a million stars like holes in the sky
All God's tears for her they cry
And I am in her rain



E acaba em:
e|------|
B|------|
G|------|
D|------|
A|-7~---|
E|-5~---|
Página 1 / 1

Letras e título
Acordes e artista

resetar configurações
OK