Cifra Club

Aprenda

Million miles away

The Offspring

Tab de baixo: Principal
Note:
: = let ring

song structure:
intro  2x
bridge 1x
riff1  2x
riff1  4x (pm)
riff2  2x
riff3  1x
riff1  2x
bridge 1x (pm)
riff1  2x
riff1  4x (pm)
riff2  2x
riff3  1x
riff1  2x
bridge 1x
riff1  2x
solo   1x
riff2  2x
riff3  1x
riff1  8x
end on last chord(and let ring).

Intro:
G|---------------------------------------------
D|---------------------------------------------
A|---------------------------------------------
E|-0:------------------------------------------

Bridge:
                         *  *  (* = 8x)
G|---------------------------------------------
D|---------------------------------------------
A|-7-7:--7--9:----9-11--12-10------------------
E|---------------------------------------------

riff1:
   * *   *   *  (* = 8x)
G|---------------------------------------------
D|---------------------------------------------
A|-7-7---9--12---------------------------------
E|---------------------------------------------

riff3:
   * (* = play alot of times palm muted)
G|---------------------------------------------
D|---------------------------------------------
A|-7---7-7-7-7--9--9--9------------------------
E|---------------------------------------------

solo: (same as guitar, almost)
G|----11-9--9-9-13-11-9-11-----9-9-13-11-9-11--
D|---------------------------------------------
A|---------------------------------------------
E|---------------------------------------------
solo part 2:
G|----9-9-13-11-9-11----------11--9------------
D|---------------------------------------------
A|---------------------------------------------
E|---------------------------------------------







_______________________________________________________
Contribuição: Thiago Gomes da Silva(thiago.g.silva@ajato.com.br)
Composição de Dexter Holland / Ron Welty
3.918 exibições

0 comentários

Ver todos os comentários

Conseguiu tocar?

0 Tocaram 0 Ainda não

Grave um vídeo tocando Million miles away e nos envie!

00:00 / 00:00
outros vídeos desta música
repetir qualidade Automático
Outros vídeos desta música
00:00 / 00:00
Automático

Cifra Club Pro

Aproveite o Cifra Club com benefícios exclusivos e sem anúncios
Cifra Club Pro
Aproveite o Cifra Club com benefícios exclusivos e sem anúncios
OK