Notificações Amigos pendentes

      The Offspring

      Pretty Fly (For a White Guy)

      31.457 exibições
      Afinação: (E-A-D-G)
      
      Intro e Verso:
      G|----------------------------------------|
      D|----------------------------------------|
      A|----------------7-5----------------7-5--|
      E|--7—-7-2-5-7—-7------7—-7-2-5-7—-7------|
      
      Refrão:
      G|----------------------------------------|
      D|----------------------------------------|
      A|-------8989------8989-5—5--5-7—-7-5-----|
      E|--7—-7------7—7-----------5--------5----|
      
      Final do Refrão:
      G|-------------------------------------------------------|
      D|--------------------------------------5—-5--5-7—-7-----|
      A|-------8989------8989-5—-5--5-7—-7-5-------5-------7-7-|
      E|--7—-7------7—-7-----------5--------5------------------| ........
      
      G|-------------|
      D|-------------| “Hey! Hey! Do that brand new thing!”
      A|----987-57---|
      E|--77---7--7--|
      
      Ponte “Now he's getting a tattoo...”:
      G|--------------------------------|
      D|----------------------9---------| Somente o baixo.
      A|---------------------------7-5--|
      E|--7---5-7---5-7---5-7----7------|
      
      G|-------------------------------------|
      D|-----------------------9-7-5-7-5-----| Baixo e Guitarra.
      A|---------------------------------7-5-|
      E|--7---5-7---5-7---5-7----------------|
        Composição: The Offspring

        Comentários 2

        140 .
        • lucas lucas: Em 15/06/2014 12:59

          isso ai ta errado '-'

        • GaBi GaBi: Em 14/05/2012 21:36

          oi

        140 cancelar

        conseguiu tocar?

        • •••
        roger1.266 visualizações
          ver covers de outras músicas »
          0:00 / 0:00

          Capítulos

            2 versões de violão dificuldade exibições contribuição e correção
            2 versões de guitarra dificuldade exibições contribuição e correção
            2 versões de cavaco dificuldade exibições contribuição e correção
            2 versões de teclado dificuldade exibições contribuição e correção
            2 versões de baixo exibições contribuição e correção
            1 versão de bateria exibições contribuição e correção
            2 versões de Guitar Proformatodownloadscontribuição
            play/pausefechar subir/descer velocidade
            6ª corda E5ª corda A4ª corda D3ª corda G2ª corda B1ª corda E
              acordes
              publicidade
              fechar
              ok