Cifra Club

Depois da Guerra

Oficina G3

Cifra: Principal
exibições 299.030
Tom: G#
[Intro]  G#5  E5  C#5  E5  Eb5
         G#5  Bb5  B5  F#5

E|------------------------------------------------------------------------|
B|---/16~---14---/19--16~------/14-14--12--14/16--14--12-11-12-14-11\9-9--|
G|------------------------------------------------------------------------|
D|------------------------------------------------------------------------|
A|------------------------------------------------------------------------|
E|------------------------------------------------------------------------|

E|-------------14-16------------------------------------------------------|
B|---/16--14-----------16-----/14--14--12--14/16--14--12-11-12-14-11/9-9--|
G|------------------------------------------------------------------------|
D|------------------------------------------------------------------------|
A|------------------------------------------------------------------------|
E|------------------------------------------------------------------------|

 G#5
Vejo ruínas de uma guerra
                        E5  Eb5
Mais uma guerra por nossas mãos
G#5
As armas foram às palavras
             E5
A vaidade a motivação

 E5                   Eb5  C#5
Feridas que sangraram a alma
E5                 Bb5   F#5  G#5
A fé de muitos se perdeu
G#5
Um dia irmãos hoje inimigos
                     Bb5  B5  F#5  E5  C5  G#5  F5
Matou-se o amor que nos  fez  um

  C5       G#5     F5
Quem vencera uma guerra entre irmãos
      G#5      Bb5
Uma guerra perdida
  C5       G#5     F5
Quem perdera um povo escolhido
    G#5    Bb5
Um povo ferido

C#

  G#5
Quebradas foram as alianças
                        E5  Eb5
Palavras que trouxeram divisão
  G#5
Pregadas, cantadas faladas
                       E5
Por muitos que diziam ser irmãos

 E5                   Eb5  C#5
Feridas que sangraram a alma
E5                 Bb5   F#5  G#5
A fé de muitos se perdeu
 G#5
Na cruz o exemplo nos foi dado
G#5                    Bb5  B5  E5
Onde ficou o amor que nos  fez  um

  C5       G#5     F5
Quem vencera uma guerra entre irmãos
      G#5      Bb5
Uma guerra perdida
  C5       G#5   F5
Quem perdera um povo escolhido
    G#5    Bb5
Um povo ferido

[Solo]  C5  G#5  F5  G#5  Bb5  C5  G#5  F5  G#5  Bb5
        Bb5  F#5  Eb5  F#5  G#5

E|-----------------------------------------------|
B|--------/11--9--8------------------------------|
G|-/5-/7-------------8--10-/12--10--8--10--7--3--|
D|-----------------------------------------------|
A|-----------------------------------------------|
E|-----------------------------------------------|

Juninho Afram
E|-------------------------------------|
B|-------------------------------------|
G|-/8--10--7--8--/12~--12--12--14--14--|
D|-------------------------------------|
A|-------------------------------------|
E|-------------------------------------|

Celso Machado
E|-------------------------------|
B|-------------------------------|
G|-5/7--3--5--/8~--8--8--10--10--|
D|-------------------------------|
A|-------------------------------|
E|-------------------------------|

Juninho Afram
E|---------------------------------------------------------------6-8-9--/16b18-16b18-16b18-16b18-16b18^16--16-16-16p14-|
B|-------6------9---------11-------14-13-11----------------6-8-9-------------------------------------------------------|
G|-8p5-----7------8----------10-13----------13-13b15-13b15-------------------------------------------------------------|
D|-----6-----8------10/12----------------------------------------------------------------------------------------------|
A|---------------------------------------------------------------------------------------------------------------------|
E|---------------------------------------------------------------------------------------------------------------------|

E|-14-14-14-\13--13-13-13-9-11b13-11b13-|-9p6--------------------------------------------------------------------------|
B|--------------------------------------|-----9-6-----9-6--------------------------------------------------------------|
G|--------------------------------------|---------8-6-----8-6-----8-8p6-----8-8p6-----6-6-3-----6-6p3---3-3p1-----3-3p1|
D|--------------------------------------|---------------------8-6-------8-6-------8-6-------6-3-------6-------3-1------|
A|--------------------------------------|------------------------------------------------------------------------------|
E|--------------------------------------|------------------------------------------------------------------------------|

E|---------------------------------------------------------------------------------------------------------------------|
B|-------------------------------------------------------------------------------------------------------------------9-|
G|-----1-----------1-----------3-----------3-----------5-----------5-----------6-------------8---------------8-10-11---|
D|-3-1---4-3-1-3-4---4-3-1-3-4---6-4-3-4-6---6-4-3-4-6---8-6-4-6-8---8-6-4-6-8---10-8-6-8-10---11-10-8-10-11-----------|
A|---------------------------------------------------------------------------------------------------------------------|
E|---------------------------------------------------------------------------------------------------------------------|

E|----------------------------------------9-13p9----------9-13b15~~--|
B|-11-13--14b16-14b16~-----------------11--------11----11------------|
G|----------------------------------10--------------10---------------|
D|-------------------------------11----------------------------------|
A|-------------------------11-13-------------------------------------|
E|----------------------13-------------------------------------------|



  C5       G#5     F5
Quem vencera uma guerra entre irmãos
      G#5      Bb5
Uma guerra perdida
  C5       G#5   F5
Quem perdera um povo escolhido
    G#5    Bb5
Um povo ferido

Solo Final

E|-----11-10----11-10----11-10----11-10----11-10---8-6---8-6---8-6---8-6---8-6---4-3---4-3---4-3---4-3---4-3-------------|
B|-------------------------------------------------------------------------------------------------------------6-4---6-4-|
G|-/12-------12-------12-------12-------12-------8-----8-----8-----8-----8-----5-----5-----5-----5-----5-----5-----6-----|
D|-----------------------------------------------------------------------------------------------------------------------|
A|-----------------------------------------------------------------------------------------------------------------------|
E|-----------------------------------------------------------------------------------------------------------------------|

E|---------------------------------------------11-10----11-10-----11-10----11-10-------8-6---8-6---8-6---8-6---8-6---4-3-|
B|---8-6---11-9-8--------13-11-9-----------------------------------------------------------------------------------------|
G|-6-----8--------10-8-7---------12-10-8---/12-------12-------12--------12-------12--8-----8-----8-----8-----8-----5-----|
D|-----------------------------------------------------------------------------------------------------------------------|
A|-----------------------------------------------------------------------------------------------------------------------|
E|-----------------------------------------------------------------------------------------------------------------------|

E|---4-3---4-3---4-3---4-3-----------------------------------------------------------------------------------------------|
B|---------------------------------11-9-8--------------------------------------------------------------------------------|
G|-5-----5-----5-----5-----5---3-3--------10-8-7-10-8-7------------------------------------------------------------------|
D|------------------------------------------------------10-8-6-10-8-6----------------------------------8^10--------8-10--|
A|--------------------------------------------------------------------10-8-6-10-8-6------------6-8-/10------6-8/10-------|
E|----------------------------------------------------------------------------------10-8-6-8-8---------------------------|

E|---------------------------------------------------------6-4-3-------6-4-3-------6-4-3-------6-4-3-------6-4-3---------|
B|---------11----------------------------------------------------6-4-3-------6-4-3-------6-4-3-------6-4-3-------6-4-3---|
G|-8-10/12----12/10-8-10-8-7b8^7-/5-3-5b7^5-/3---3-5-3-5/7---------------------------------------------------------------|
D|---------------------------------------------5-------------------------------------------------------------------------|
A|-----------------------------------------------------------------------------------------------------------------------|
E|-----------------------------------------------------------------------------------------------------------------------|

E|-8-6-4-------8-6-4-------8-6-4-------10-8-6-------11-10-8--------11-10-8--------13-11-10---------13-11-10--------------|
B|-------8-6-4-------8-6-4-------8-6-4--------9-8-6---------11-9-8---------11-9-8----------13-11-9----------13-11-9------|
G|-----------------------------------------------------------------------------------------------------------------------|
D|-----------------------------------------------------------------------------------------------------------------------|
A|-----------------------------------------------------------------------------------------------------------------------|
E|-----------------------------------------------------------------------------------------------------------------------|

E|-16b18-16b18~-16b18-16b18~--18b20--18--18b20^18b20~--18b20--18--18b20^18b20~---18b20--18--18b21^18b20--18-18b20^18b20~-|
B|-----------------------------------------------------------------------------------------------------------------------|
G|-----------------------------------------------------------------------------------------------------------------------|
D|-----------------------------------------------------------------------------------------------------------------------|
A|-----------------------------------------------------------------------------------------------------------------------|
E|-----------------------------------------------------------------------------------------------------------------------|

E|-15-15-15-16-15-13-15-15-15-16-15-13-15-15-15-15-16-15-13-15-15-15-16-15-13-16-15-13----------16-15-13----------16-15--|
B|-------------------------------------------------------------------------------------16-15-13----------16-15-13--------|
G|-----------------------------------------------------------------------------------------------------------------------|
D|-----------------------------------------------------------------------------------------------------------------------|
A|-----------------------------------------------------------------------------------------------------------------------|
E|-----------------------------------------------------------------------------------------------------------------------|

E|-13----------16-15-13----------15-13-11----------13-11-10---------------8------------8------------8--------------------|
B|----16-15-13----------16-15-13----------15-13-11----------13-11-9-11b13---11-8-11b13---11-8-11b13---11-8-11b14^11-8----|
G|-----------------------------------------------------------------------------------------------------------------------|
D|-----------------------------------------------------------------------------------------------------------------------|
A|-----------------------------------------------------------------------------------------------------------------------|
E|-----------------------------------------------------------------------------------------------------------------------|

E|-----------------------------------------------------------------------------------------------------------------------|
B|-11p8-------8----------------------------------------11----------------------------------------------------------------|
G|------11-10---10^11p10p8^10--/10-8------8-10-8-10/12----12/10p8------8-----------------------8-------------------------|
D|-----------------------------------10-8-------------------------10-8---10-8-10----------8-10---10p8----8-10-8-10-/8----|
A|-----------------------------------------------------------------------------------8-10-------------10-----------------|
E|-------------------------------------------------------------------------------/11-------------------------------------|

E|------------------------------/11--/13--/15--15b16^15--15-14-13--------------14-15-13-14-11-13-10^11p10----10----------|
B|--------------------/11--/13------------------------------------16b18^16b18~----------------------------13----11-------|
G|------/8--/10--/12-----------------------------------------------------------------------------------------------10-/8-|
D|-/10-------------------------------------------------------------------------------------------------------------------|
A|-----------------------------------------------------------------------------------------------------------------------|
E|-----------------------------------------------------------------------------------------------------------------------|

E|-----------------------------------------------------------------------------------------------------------------------|
B|------------------10-10/11--10/11\10---------8------------------------8----------------------8-------------------------|
G|-10^11p10-8----8--10-10/11--10/11\10p8-------8------------------------8-------------------8--8-----8---------8----8----|
D|------------10-------------------------10-8--8-10-8-10-----8-10-8-10--8--10-8-10-----8-10----8--10-8-10--/10---10------|
A|-------------------------------------------------------/10-----------------------/10-----------------------------------|
E|-----------------------------------------------------------------------------------------------------------------------|

E|----------------------------|
B|-----11----13p11-/16-15b16--|
G|-/12----12------------------|
D|----------------------------|
A|----------------------------|
E|----------------------------|

Essa parte necessita da alavanca.
E|-10--11--13--11--10---8--10--11--10--8--|
B|----------------------------------------|
G|----------------------------------------|
D|----------------------------------------|
A|----------------------------------------|
E|----------------------------------------|

Agora você deve usar a alavanca nesse trecho:~~~~~~~~~~~~W Metralhadora
E|-8~~-11~~-8~~-10~~-8~~-11~~-10~~-8~~-11~~-8~~-10~~-8~~-13~~-8~~-11~~-8~~-10~~-8~~-------------8------------------------|
B|----------------------------------------------------------------------------------11b13^11b13---11p8----11p8-------8---|
G|-----------------------------------------------------------------------------------------------------10------11-10-----|
D|-----------------------------------------------------------------------------------------------------------------------|
A|-----------------------------------------------------------------------------------------------------------------------|
E|-----------------------------------------------------------------------------------------------------------------------|

E|----------------|
B|----------------|
G|-10^11p10p8-10--|
D|----------------|
A|----------------|
E|----------------|

E|----------------|
B|----------------|
G|-10-8-7---------|Essa repete 8x.
D|--------10-8-6--|
A|----------------|
E|----------------|

E|----------------------------------------------------------------------------------------------------------------------|
B|----------------------------------------------------4-----------------------------------------------------------------|
G|-8-7-5-------7-5-3-------5-3-1-------5----3---5-5p3---5-3-5-------------8------------------8-10/12-8-10---------8-10--|
D|-------8-6-5-------6-5-3-------5-3-1---/5---5-------------------8-10-10---10-8-10-----8-10-----------------8-10-------|
A|------------------------------------------------------------\10-------------------/10-------------------10------------|
E|----------------------------------------------------------------------------------------------------------------------|

E|--------------------------------------------8-------------------------------------------------------------------------|
B|----------9b11^9-8--------------------------8-10-8--------------------------------------------------------------------|
G|-10/12-8-----------\10p8----8-7-------------8-10-8-----------8-10/12-8-10b12^10-8---------------8-10/12-8-10-8--------|
D|-------------------------10-----10-----8-10-------------8-10-8--------------------10-8-10--8-10----------------/10----|
A|-----------------------------------\10--------------\10---------------------------------------------------------------|
E|----------------------------------------------------------------------------------------------------------------------|

E|----------------13-15-15b16^15-13-15--15--------13-------10---10b11^10----8-10----------------------------------------|
B|-------13-14-15--------------------------13-\11----11-\8----8----------11------11-9p8----9----------------------------|
G|-12^15--------------------------------------------------------------------------------10---10p8----10p8----8p7----7p5-|
D|------------------------------------------------------------------------------------------------10------10-----10-----|
A|----------------------------------------------------------------------------------------------------------------------|
E|----------------------------------------------------------------------------------------------------------------------|

E|--------------------------------------------------------------------------------------|
B|-------------3-4p3---3----------------------------------------------------------------|
G|---5p3---3^5-------5---5b7^5-3--------------------------------------------------------|
D|-8-----6-----------------------\3p1---------------------------------------------------|
A|------------------------------------3--/3-/5-/6--8/10--/8--6--8---6/5\6/5--/3-/1--/3--|
E|--------------------------------------------------------------------------------------|

0 comentários

    mostrar mais comentários

    Conseguiu tocar?

    46tocaram0ainda não

    Grave um vídeo tocando Depois da Guerra e mande pra gente!

    00:00 / 00:00
    outros vídeos desta música
    repetirqualidadeAutomático
    Outro vídeos desta música
      00:00 / 00:00
      OK