Enviar cifraEntrar

Depois da Guerra

Oficina G3

Cifra: Principal
exibições 288.013
Tom: F#
   Intro 4x: G#5  E5  C#5  E5  Eb5

  (19x)         

E|----x---------|
B|----x---------|
G|----13--------|
D|----x---------|
A|----11--------|
E|----x---------|


E|------------------------------------------------------------------------|
B|---/16~---14---/19--16~------/14-14--12--14/16--14--12-11-12-14-11\9-9--|
G|------------------------------------------------------------------------|
D|------------------------------------------------------------------------|
A|------------------------------------------------------------------------|
E|------------------------------------------------------------------------|


E|-------------14-16------------------------------------------------------|
B|---/16--14-----------16-----/14--14--12--14/16--14--12-11-12-14-11/9-9--|
G|------------------------------------------------------------------------|
D|------------------------------------------------------------------------|
A|------------------------------------------------------------------------|
E|------------------------------------------------------------------------|

         
( G#5  Bb5  B5  F#5 )

G#5
Vejo ruínas de uma guerra
                        E5  Eb5
Mais uma guerra por nossas mãos
G#5
As armas foram às palavras
            E5
A vaidade a motivação

E5                     Eb5  C#5
Feridas que sangraram a alma
E5                  Bb5  F#5  G#5
A fé de muitos se perdeu
G#5
Um dia irmãos hoje inimigos
                    Bb5  B5  F#5  E5 (C5 G#5 F5)
Matou-se o amor que nos fez um

C5        G#5      F5
Quem vencera uma guerra entre irmãos
     G#5       Bb5
Uma guerra perdida
C5        G#5    F5
Quem perdera um povo escolhido
    G#5   Bb5
Um povo ferido

C# (dedilha o acorde)

G#5
Quebradas foram as alianças
                        E5 Eb5
Palavras que trouxeram divisão
G#5
Pregadas, cantadas faladas
                       E5
Por muitos que diziam ser irmãos

E5                     Eb5 C#5
Feridas que sangraram a alma
E5                  Bb5  F#5  G#5
A fé de muitos se perdeu
G#5
Na cruz o exemplo nos foi dado
G#5                   Bb5 B5   E5
Onde ficou o amor que nos fez um

C5        G#5      F5
Quem vencera uma guerra entre irmãos
     G#5       Bb5
Uma guerra perdida
C5        G#5    F5
Quem perdera um povo escolhido
    G#5   Bb5
Um povo ferido

Solo: C5  G#5  F5  G#5  Bb5  C5  G#5  F5  G#5  Bb5
      (Bb5  F#5  Eb5  F#5  G#5)

Refrão:

final:

C5       G#5
Vejo ruínas de uma guerra
F5              G#5  Bb5
feita por nossas mãos.
  • 1
  • 2
  • 3
  • 4
  • 5
  • 6
  • 7
  • 8
  • 9
  • 10
  • 11
  • 12

    0 comentários

      mostrar mais comentários

      Conseguiu tocar?

      44tocaram0ainda não

      Grave um vídeo tocando Depois da Guerra e mande pra gente!

      00:00 / 00:00
      outros vídeos desta música
      repetirqualidadeautomática
      • automática
      Outro vídeos desta música
        00:00 / 00:00
        automática
        • automática
        fecharplay/pause subir/descer velocidade
          acordes
          fechar
          OK
          Feedback