Diz

Oficina G3

Composição de: Julim Barbosa / Oficina G3
tom: Bb
Intro:

      Harm....        Harm....
C |-------------------------------|
G |-------------------------------|
Eb|-------------------------------|E 7x 
Bb|-------------------------------|B
F |--------------2---2---2--------|
C |-0-0-0-0----0---0---0---0------|

Riff 1:

C |-----------------------------------|
G |-----------------------------------|
Eb|-----------------------------------|E
Bb|-2-2-2-2----12\11------------------|B
F |-2-2-2-2---------------------------|
C |-0-0-0-0----10\9---0-9p7--0-10h12--|

Riif 2:

C |----------------------------------|
G |---------------10\9---------------|
Eb|----------------------------------|E
Bb|-2-2-2-2----7\6-------------------|B
F |-2-2-2-2------------0-9p7---5h7---|
C |-0-0-0-0--------------------9-----|

Cm
Palavras são lançadas
Em algum lugar repousarão
Levam em si a vida
Ou vida em morte tornarão

Cm
Belas palavras
Podem até esconder a intenção
E o coração impuro
Será sondado e cobrado

Cm       Bb       D#     F
O fruto da palavra que lançou, colherá
Cm      Am      G#      C#
Palavras uma vez lançadas, nunca voltarão

Cm   D#        Cm   D#   (Bb C D# F F# G Bb)
Diz o que você tem pra dizer
Cm   D#         Bb   C#
Diz qual é sua intenção, fale
Cm   D#         Cm  D# (Bb C D# F F# G Bb)
Diz se há algo de bom
Cm   D#        Bb   C#    C F
Se isto está em você, fale

(Riff Intro)

Cm
Lentes distorcem o olhar
Alteram, turvam a visão
Trazem à boca o amargo
O fruto da insatisfação

Cm         Bb
Se os olhos forem bons
D#         F
Então tudo será bom
Cm        Bb
São as janelas
     D#    F
Que trazem luz ou escuridão

Cm   D#        Cm   D#   (Bb C D# F F# G Bb)
Diz o que você tem pra dizer
Cm   D#         Bb   C#
Diz qual é sua intenção, fale
Cm   D#         Cm  D# (Bb C D# F F# G Bb)
Diz se há algo de bom
Cm   D#        Bb   C#    C F
Se isto está em você, fale

Solo de Baixo: Cm  Bb
Todos os instrumentos: Cm  Bb

(Refrão)

(Riff Intro)
Página 1 / 1

Letras e título
Acordes e artista

resetar configurações
OK