Notificações Amigos pendentes

      Oficina G3

      O Tempo

      89.320 exibições
      Tom: F
      Intro: Gm   C  F  Bb
      
       Gm                  C
      O vento toca o meu rosto
            F                         Bb
      Me lembrando que o tempo vai com ele
        Gm                          C
      Levando em suas asas os meus dias,
           F          Bb
      Desta vida passageira
       Gm
      Minhas certezas, meus conceitos,
                C
      Minhas virtudes, meus defeitos
      F           Bb
      Nada pode detê-lo...
         Gm    Am
      ...o tempo se vai
          Bb
      Mas algo sempre guardarei...
        Dm    C/E          F           C
      ..o teu amor, que um dia eu encontrei
      
      F        Gm       Am        Bb
      Os meus sonhos, o vento nao pode levar
      Dm     C       Am          Bb
      A esperança, encontrei no teu olhar
      F       Gm        Am           Bb
      Os meus sonhos, a areia não vai enterrar
      Dm       C        Am          Bb
      Porque a vida recebi ao te encontrar...
      
      Gm                        C
      ...nos teus braços não importa o tempo
           F              Bb
      Só existe o momento de sonhar
           Gm            C
      E o medo que está sempre à porta
               F
      Quando estou com você
              Bb
      Ele não pode entrar...
        Gm       Am
      ...o tempo se vai
      Bb
      Mas algo sempre guardarei...
        Gm     Am        Bb          C
      ..o teu amor, que um dia eu encontrei
      
      F        Gm       Am        Bb
      Os meus sonhos, o vento nao pode levar
      Dm     C       Am          Bb
      A esperança, encontrei no teu olhar
      F       Gm        Am           Bb
      Os meus sonhos, a areia não vai enterrar
      Dm       C        Am          Bb
      Porque a vida recebi ao te encontrar...
      
      Solo 2x: Gm7  C9  F  Bb9
      Solo:
      
      E|---------5-6/8---6/8~---6-5-----|
      B|----5-6-8------------------6/8~-|
      G|-5-7-----------5----------------|
      D|--------------------------------|
      A|--------------------------------|
      E|--------------------------------|
      
      
      E|-----------------------------5---|
      B|----5-6/8~-8/10-10~--6/8-6-8---6-|
      G|-5-7-----------------------------|
      D|---------------------------------|
      A|---------------------------------|
      E|---------------------------------|
      
      
      E|----6/8~--------5h6h8p6p5----------------------|
      B|----------5h6h8-----------8-6-5-6-8-5h6p5------|
      G|-5~---------------------------------------7-5~-|
      D|-----------------------------------------------|
      A|-----------------------------------------------|
      E|-----------------------------------------------|
      
      
      E|-6-8-8/10-8~-5------------|
      B|--------------6-----------|
      G|----------------6~--------|
      D|----------------8~-----D*-|--- D* - hamonico natural
      A|--------------------------|         no 12* traste,
      E|--------------------------|         fazendo soar a nota D
      
      
      ( Dm  C9  F  Bb9  C9 )
      
      F        Gm       Am        Bb
      Os meus sonhos, o vento nao pode levar
      Dm     C       Am          Bb
      A esperança, encontrei no teu olhar
      F       Gm        Am           Bb
      Os meus sonhos, a areia não vai enterrar
      Dm       C        Am          Bb
      Porque a vida recebi ao te encontrar...
      
      ( Gm7  C9  F  Bb9  Gm7  C9  F )
        Composição: Juninho AframColaboração e revisão:
        • leo_c
        • mattbass1
        • Edu Leocádio
        • jeankarlostm
        • +5

        Comentários 3

        140 .
        • Muraoka Muraoka: Em 15/10/2014 08:04

          O original é tocado com afinação drop D,e a cifra no tom de G.

        • thiaguinhoguita thiaguinhoguita: Em 12/02/2012 13:10

          legal

        • krt99 krt99: Em 23/09/2011 11:39

          linda cara muito loka

        140 cancelar

        conseguiu tocar?

        • •••
        0:00 / 0:00

        Capítulos

          2 versões de violão dificuldade exibições contribuição e correção
          2 versões de guitarra dificuldade exibições contribuição e correção
          2 versões de cavaco dificuldade exibições contribuição e correção
          2 versões de teclado dificuldade exibições contribuição e correção
          1 versão de Guitar Proformatodownloadscontribuição
          1 versão de partiturasformatodownloadscontribuição
          play/pausefechar subir/descer velocidade
          6ª corda E5ª corda A4ª corda D3ª corda G2ª corda B1ª corda E
            acordes
            publicidade
            fechar
            ok