Espelhos Mágicos

Oficina G3

Composição: Juninho Afram
Tom: Bm
[Introdução] B5  A5  G5  (Riff 1)
             B5  G5  A5
             B5  A5  G5  (Riff 1)
             B5  G5  A5
             B5  (Riff 2)

   B5
E|------------------------------------------|
B|---------3/5-3~---------------------------|
G|---------2/4-2~---------------------------|
D|------------------------------------------|
A|-2-2-2-2----------------------------------|
E|------------------------------------------|

   A5           G5            (Riff 1)
E|------------------------------------------|
B|------------------------------------------|
G|-2------------0---------------------------|
D|-2------------0--------------2-5-4-2-0----|
A|-0----------------------------------------|
E|--------------3---------------------------|

   B5
E|------------------------------------------|
B|---------3/5-3~---------------------------|
G|---------2/4-2~---------------------------|
D|------------------------------------------|
A|-2-2-2-2----------------------------------|
E|------------------------------------------|

   G5        A5
E|------------------------------------------|
B|----3------5------------------------------|
G|------4------6----------------------------|
D|-/5-----5/-----7\-------------------------|
A|------------------------------------------|
E|------------------------------------------|

   B5
E|------------------------------------------|
B|---------3/5-3~---------------------------|
G|---------2/4-2~---------------------------|
D|------------------------------------------|
A|-2-2-2-2----------------------------------|
E|------------------------------------------|

   A5           G5            (Riff 1)
E|------------------------------------------|
B|------------------------------------------|
G|-2------------0---------------------------|
D|-2------------0--------------2-5-4-2-0----|
A|-0----------------------------------------|
E|--------------3---------------------------|

   B5
E|------------------------------------------|
B|---------3/5-3~---------------------------|
G|---------2/4-2~---------------------------|
D|------------------------------------------|
A|-2-2-2-2----------------------------------|
E|------------------------------------------|

   G5        A5
E|------------------------------------------|
B|----3------5------------------------------|
G|------4------6----------------------------|
D|-/5-----5/-----7\-------------------------|
A|------------------------------------------|
E|------------------------------------------|

   B5
E|------------------------------------------|
B|------------------------------------------|
G|------------------------------------------|
D|------------------------------------------|
A|-2--2-2-2--2-2-2--2-2-2--2-2-2--2-2-2-----|
E|------------------------------------------|

E|------------------------------------------|
B|------------------------------------------|
G|------------------------------------------|
D|------------------------------------------|
A|-2-2-2--0--0h2--2--2-2-2--2-2-2--0--------|
E|------------------------------------------|

  (Riff 2)
E|------------------------------------------|
B|------------------------------------------|
G|------------------------------------------|
D|------------------------------------------|
A|-0---5------------0-----------------------|
E|---3---2--0---2---------------------------|


[Primeira Parte]

B5            
   Os homens 
   A5     G5     B5     G5  A5  B5
E seus espelhos mágicos
      A5    G5 
Nada vêem além 
       B5    G5  A5  
De si mesmos


[Segunda Parte]

E5                   F#5            G5
   Se esqueceram daquele que um dia 
              A5  (Riff 3)
Esteve entre nós

  (Riff 3)
E|------------------------------------------|
B|------------------------------------------|
G|------------------------------------------|
D|------------------------------------------|
A|-0--2-----0-------------------------------|
E|-------3----------------------------------|

E5        F#5         G5
   E que veio cumprir 
         A5    (Riff 4)  B5
Segundo já  estava   escrito

  (Riff 2)
E|------------------------------------------|
B|------------------------------------------|
G|------------------------------------------|
D|-0----------------------------------------|
A|----4--2--0-------------------------------|
E|------------------------------------------|

        
[Primeiro Refrão]

    G5      A5
Nasceu, sofreu
    F#5     G5  ( G5  E5  F#5 )  G5
Morreu por nós
            A5         B5
Seu sangue lá na cruz derramou
    G5      A5
Nasceu, sofreu


[Terceira Parte]

B5           
   Os homens 
   A5     G5     B5     G5  A5  B5
E seus espelhos mágicos
          
Só vêem um 
  A5       G5      B5  G5  A5 
Cristo vencido em dor


[Quarta Parte]

E5                  F#5      G5
   Não conhecem a cruz vazia 
              A5  (Riff 3) 
Pois ressuscitou

E5         F#5          G5
   Nem um toque de vida 
              A5  (Riff 4)  B5
Do filho do amor


[Segundo Refrão]

    G5      A5
Nasceu, sofreu
    F#5     G5  ( G5  E5  F#5 )  G5
Morreu por nós
            A5         B5
Seu sangue lá na cruz derramou

    G5      A5
Nasceu, sofreu
    F#5     G5  ( G5  E5  F#5 )  G5
Morreu por nós
            A5         B5
Seu sangue lá na cruz derramou


[Ponte]

     G5       
Na cruz lutou
     A5        
Na cruz venceu
       F#5        
E sua vida nos deu
           B5       A5       G5  A5
Pra que a vida estivesse em nós


[Solo] G5  A5  F#5  G5  
       G5  A5  B5
       G5  A5  F#5  G5
       G5  A5  B5



[Terceiro Refrão]

    G5      A5
Nasceu, sofreu
    F#5     G5  ( G5  E5  F#5 )  G5
Morreu por nós
            A5         B5
Seu sangue lá na cruz derramou

    G5      A5
Nasceu, sofreu
    F#5     G5  ( G5  E5  F#5 )  G5
Morreu por nós
            A5         B5
Seu sangue lá na cruz derramou


[Ponte]

     G5       
Na cruz lutou
     A5        
Na cruz venceu
       F#5        
E sua vida nos deu
           B5       A5       G5  A5
Pra que a vida estivesse em nós

Estivesse em nós


[Final] B5  A5  G5  (Riff 1)
        B5  G5  A5
        B5  A5  G5  (Riff 1)
        B5  G5  A5
        B5  A5
Página 1 / 1

Letras e título
Acordes e artista

resetar configurações
OK