Cifra Club

Aprenda

Espelhos Mágicos

Oficina G3

Cifra: Guitarra (violão e guitarra)
Tom: Bm
[Introdução] B5  A5  G5  (Riff 1)
             B5  G5  A5
             B5  A5  G5  (Riff 1)
             B5  G5  A5
             B5  (Riff 2)

   B5
E|------------------------------------------|
B|---------3/5-3~---3-----------------------|
G|---------2/4-2~---2-----------------------|
D|---------------------X-X------------------|
A|-2-2-2-2-------------X-X------------------|
E|---------------------X-X------------------|

   A5           G5          (Riff 1)
E|------------------------------------------|
B|------------------------------------------|
G|-2------2-----0---------------------------|
D|-2------2-X-X-0--------------2-5-4-2------|
A|-0------0-X-X--------------5---------5----|
E|----------X-X-3---------------------------|

   B5
E|------------------------------------------|
B|---------3/5-3~---3-----------------------|
G|---------2/4-2~---2-----------------------|
D|---------------------X-X------------------|
A|-2-2-2-2-------------X-X------------------|
E|---------------------X-X------------------|

   G5        A5
E|------------------------------------------|
B|----3------5------------------------------|
G|------4------6----------------------------|
D|-/5-----5/-----7\-------------------------|
A|------------------------------------------|
E|------------------------------------------|

   B5
E|------------------------------------------|
B|---------3/5-3~---3-----------------------|
G|---------2/4-2~---2-----------------------|
D|---------------------X-X------------------|
A|-2-2-2-2-------------X-X------------------|
E|---------------------X-X------------------|

   A5           G5          (Riff 1)
E|------------------------------------------|
B|------------------------------------------|
G|-2------2-----0---------------------------|
D|-2------2-X-X-0--------------2-5-4-2------|
A|-0------0-X-X--------------5---------5----|
E|----------X-X-3---------------------------|

   B5
E|------------------------------------------|
B|---------3/5-3~---3-----------------------|
G|---------2/4-2~---2-----------------------|
D|---------------------X-X------------------|
A|-2-2-2-2-------------X-X------------------|
E|---------------------X-X------------------|

   G5        A5
E|------------------------------------------|
B|----3------5------------------------------|
G|------4------6----------------------------|
D|-/5-----5/-----7\-------------------------|
A|------------------------------------------|
E|------------------------------------------|

   B5
E|------------------------------------------|
B|------------------------------------------|
G|------------------------------------------|
D|-4--4-4-4--4-4-4--4-4-4--4-4-4--4-4-4-----|
A|-2--2-2-2--2-2-2--2-2-2--2-2-2--2-2-2-----|
E|------------------------------------------|

E|------------------------------------------|
B|------------------------------------------|
G|------------------------------------------|
D|-4-4-4--2--2h4--4--4-4-4--4-4-4--0--------|
A|-2-2-2--0--0h2--2--2-2-2--2-2-2--0--------|
E|------------------------------------------|

  (Riff 2)
E|------------------------------------------|
B|------------------------------------------|
G|------------------------------------------|
D|-2---7------------2-----------------------|
A|-0-3-5-4--2---4---0-----------------------|
E|---3---2--0---2---------------------------|


[Primeira Parte]

B5            
   Os homens 
   A5     G5     B5     G5  A5  B5
E seus espelhos mágicos
      A5    G5 
Nada vêem além 
       B5    G5  A5  (Riff 3)
De si mesmos

  (Riff 3)
E|------------------------------------------|
B|------------------------------------------|
G|------------------------------------------|
D|------------------------------------------|
A|-5-4-2------------------------------------|
E|-------5-3-2------------------------------|


[Segunda Parte]

E5                   F#5            G5
   Se esqueceram daquele que um dia 
              A5  ( A5  B5  G5  A5 )
Esteve entre nós

E5        F#5         G5
   E que veio cumprir 
         A5   (Riff 4)   B5
Segundo já  estava   escrito

  (Riff 4 – Guitarra 1) 
E|------------------------------------------|
B|------------------------------------------|
G|------------------------------------------|
D|------------------------------------------|
A|-5p4-2-0----------------------------------|
E|------------------------------------------|

  (Riff 4 – Guitarra 2) 
E|------------------------------------------|
B|------------------------------------------|
G|------------------------------------------|
D|-4p2--------------------------------------|
A|-----5-4----------------------------------|
E|------------------------------------------|

	
[Primeiro Refrão]

    G5      A5
Nasceu, sofreu
    F#5     G5  ( G5  E5  F#5 )  G5
Morreu por nós
            A5         B5
Seu sangue lá na cruz derramou
    G5      A5
Nasceu, sofreu


[Terceira Parte]

B5           
   Os homens 
   A5     G5     B5     G5  A5  B5
E seus espelhos mágicos
          
Só vêem um 
  A5       G5      B5  G5  A5  (Riff 3)
Cristo vencido em dor


[Quarta Parte]

E5                  F#5      G5
   Não conhecem a cruz vazia 
              A5  ( A5  B5  G5  A5 ) 
Pois ressuscitou

E5         F#5          G5
   Nem um toque de vida 
              A5  (Riff 4)  B5
Do filho do amor


[Segundo Refrão]

    G5      A5
Nasceu, sofreu
    F#5     G5  ( G5  E5  F#5 )  G5
Morreu por nós
            A5         B5
Seu sangue lá na cruz derramou

    G5      A5
Nasceu, sofreu
    F#5     G5  ( G5  E5  F#5 )  G5
Morreu por nós
            A5         B5
Seu sangue lá na cruz derramou


[Ponte]

     G5       
Na cruz lutou
     A5        
Na cruz venceu
       F#5        
E sua vida nos deu
           B5       A5       G5  A5
Pra que a vida estivesse em nós


[Solo] G5  A5  F#5  G5  
       G5  A5  B5
       G5  A5  F#5  G5
       G5  A5  B5

E|-17b19r--b19~----------------------------------------|
B|----------------20b22--b22r----b22~------------------|
G|-----------------------------------------------------|
D|-----------------------------------------------------|
A|-----------------------------------------------------|
E|-----------------------------------------------------|

E|-17-------17-------------------15-17-19-17-15--------|
B|----20-19----20-19-17-15-17-19-----------------------|
G|-----------------------------------------------------|
D|-----------------------------------------------------|
A|-----------------------------------------------------|
E|-----------------------------------------------------|

E|-14-15-17-15-14----------15-14-12--------------------|
B|----------------17-15-14----------15-14-12-----------|
G|-------------------------------------------12-11-9---|
D|-----------------------------------------------------|
A|-----------------------------------------------------|
E|-----------------------------------------------------|

E|-----------------------------------------------------|
B|-----------------------------------------------------|
G|-----------------------------------9-11-12~----------|
D|-12-11-9-------------------9-11-12-------------------|
A|---------12-10-9-7-9-10-12---------------------------|
E|-----------------------------------------------------|

E|-----------------------------------------------------|
B|-----------------------------------------------------|
G|-11b12r11p9--11b12--11--9~---------------------------|
D|-----------------------------------------------------|
A|-----------------------------------------------------|
E|-----------------------------------------------------|

                                                 T
E|--------------------------------------10h12h14-17/---|
B|-----------------------------------------------------|
G|------11--12--14--12--11-----11h12h14----------------|
D|-/14----------------------14-------------------------|
A|-----------------------------------------------------|
E|-----------------------------------------------------|

E|-14p12-10\9------------------------------------------|
B|-------------15b17--15--14--12--14--15-14-12---------|
G|-----------------------------------------------------|
D|-----------------------------------------------------|
A|-----------------------------------------------------|
E|-----------------------------------------------------|

E|-----------------------------------------------------|
B|-7/15~---15h17-14~---14h15p14--12\10--10~------------|
G|-----------------------------------------------------|
D|-----------------------------------------------------|
A|-----------------------------------------------------|
E|-----------------------------------------------------|

E|-----------------------------------------------------|
B|-12--14--14b15r14p12~--------------------------------|
G|-----------------------------------------------------|
D|-----------------------------------------------------|
A|-----------------------------------------------------|
E|-----------------------------------------------------|

   / H.N /   \/
E|----19-----------------------------------------------|
B|-----------------------------------------------------|
G|-----------------------------------------------------|
D|-----------------------------------------------------|
A|-----------------------------------------------------|
E|-----------------------------------------------------|

E|-------------------7---------------------------------|
B|-/10--10p8p7hh8h10---10p8p7h8h10p8p7-----------------|
G|-------------------------------------9p7\6h7h9p7p6---|
D|-----------------------------------------------------|
A|-----------------------------------------------------|
E|-----------------------------------------------------|

E|-----------------------------------------------------|
B|-----------------------------------------------------|
G|-----------------------------------------------------|
D|-9p5h7h9p7p5-----------------------------------------|
A|-------------9p5h7h9p7p5-----------------------------|
E|-------------------------9p7p5h7~--------------------|


[Terceiro Refrão]

    G5      A5
Nasceu, sofreu
    F#5     G5  ( G5  E5  F#5 )  G5
Morreu por nós
            A5         B5
Seu sangue lá na cruz derramou

    G5      A5
Nasceu, sofreu
    F#5     G5  ( G5  E5  F#5 )  G5
Morreu por nós
            A5         B5
Seu sangue lá na cruz derramou


[Ponte]

     G5       
Na cruz lutou
     A5        
Na cruz venceu
       F#5        
E sua vida nos deu
           B5       A5       G5  A5
Pra que a vida estivesse em nós

Estivesse em nós


[Final] B5  A5  G5  (Riff 1)
        B5  G5  A5
        B5  A5  G5  (Riff 1)
        B5  G5  A5
        B5  A5
Composição de Juninho Afram
Colaboração e revisão:
  • Vinícius Dias
  • Andersom Nascimento
  • Thales Silva
29.462 exibições
    • ½ Tom
    • Am
    • Bbm
    • Bm
    • Cm
    • C#m
    • Dm
    • Ebm
    • Em
    • Fm
    • F#m
    • Gm
    • G#m
  • Adicionar à lista

    0 comentários

    Mostrar mais comentários
    00:00 / 00:00
    outros vídeos desta música
    repetir qualidade Automático
    Outros vídeos desta música
    00:00 / 00:00
    Automático
    Capítulos
    • Apresentação / Equipamentos
    • Tocando a Música
    • Configuração dos Pedais
    • Ensinando Introdução
    • Ensinando Primeira Parte
    • Ensinando Segunda Parte
    • Ensinando Primeira Parte
    • Dicas Repetições
    • Ensinando Ponte
    • Dicas Solo
    • Ensinando Solo
    • Encerramento

    Cifra Club Pro

    Aproveite o Cifra Club com benefícios exclusivos e sem anúncios
    7 dias grátis
    Cifra Club Pro
    Aproveite o Cifra Club com benefícios exclusivos e sem anúncios
    7 dias grátis
    OK