Enviar cifraEntrar

Incondicional

Oficina G3

Cifra: Principal
exibições 138.729
Tom: G
Intro 2x: D  D/B  A  C

D       C9            F7M            G/B  C9
Troquei as cores ao redor pra te mostrar
D  C9               F7M      G/B        C9
Criei formas pra fazer você ver e entender
D      C9              F7M     G/B  C9
Eu tentei falar dando sons a minha voz
D         C9                 F7M           G/B C9
Você não me ouviu, mas continuo a te esperar

Refrão:
D      Am7       Em
Eu acredito em você
D
Ouça minha voz
D                 Am7
Te estendo minhas mãos
     F7M Em7          D
Meu amor é incondicional

D        C9      FM7          G/B
Quero fazer, nascer o sol de novo um dia pra você
D9         C9                F               G
Trazer a minha luz pra te mostrar os meus caminhos
D9       C9                      F                   G
Eu vou estar sempre aqui, esperando por você
D9          C9                    F        G
Eu não me cansarei de te mostrar, que...

Refrão:

D      Am7       Em
Eu acredito em você
D
Ouça minha voz
D                  Am7
Te estendo minhas mãos
     F7M Em7          D
Meu amor é incondicional
Solo:

E|----------------------------------------------------------------------------|
B|----5/8-7-7-8/10-7-10~~-5------12~~--12/10/8/10-----------------------------|
G|-5h7----------------------4/2-----------------------------------------------|
D|----------------------------------------------------------------------------|
A|----------------------------------------------------------------------------|
E|----------------------------------------------------------------------------|


E|---------------------------------------------------------5------------------|
B|------------------------------------------3--------------------3---3--------|
G|---------2---------------2----------------2--------0---2----0---------0-----|
D|----4--5---5--4-----4--5---5--4-----4--5--0------4---4---4-------4-------4--|
A|--5---------------2---------------------------3-----------------------------|
E|----------------------------------3-----------------------------------------|


D              Bm
Quanto tempo mais
               A5(9)        C9
Qual a prova maior, que a cruz
D                Bm
Me entreguei por ti
                 A5(9)     C9
Esta é a prova maior, de amor (2x)

E|---------------------------------------------------------5------------------|
B|------------------------------------------3--------------------3---3--------|
G|---------2---------------2----------------2--------0---2----0---------0-----|
D|----4--5---5--4-----4--5---5--4-----4--5--0------4---4---4-------4-------4--|
A|--5---------------2---------------------------3-----------------------------|
E|----------------------------------3-----------------------------------------|


Refrão 2x:
D      Am7       Em
Eu acredito em você
D
Ouça minha voz
D                  Am7
Te estendo minhas mãos
     F7M Em7          D
Meu amor é incondicional
  • 1
  • 2
  • 3
  • 4
  • 5
  • 6
  • 7
  • 8
  • 9
  • 10
  • 11
  • 12
    Acordes para:

      0 comentários

        mostrar mais comentários

        Conseguiu tocar?

        21tocaram0ainda não

        Grave um vídeo tocando Incondicional e mande pra gente!

        00:00 / 00:00
        outros vídeos desta música
        repetirqualidadeautomática
        • automática
        Outro vídeos desta música
          00:00 / 00:00
          automática
          • automática
          Acordes para:violão e guitarra
          dificuldadeexibiçõescontribuições
          1 versão de Guitar Proformatodownloadscontribuição
          fecharplay/pause subir/descer velocidade
            acordes
            fechar
            OK
            Feedback