Cifra Club

Aprenda

Incondicional

Oficina G3

Cifra: Versão 4 (violão e guitarra)
tom: A
Afinação em D

Intro:

d|------------5-----7------0-------------------------------10--7------0----------------|
A|-----0-------5-----10-----0--------0------0------0-----10-----10-----0--------0------|
F|-1-2------0----------9-------------------2----1-2-----0---------9--------------1-----|
C|-2-------------------------4------2---4/6-----2-----------------------4------2-------|
G|-2-----------------------------2/4------------2---------------------------2/4--------|
D|------------------8------------------------------------------8------------------p3-0-|
*o solo ñ eh bm assim mas tah parecido

E            A/D        G             A/C#
 Troquei as cores ao redor pra te mostrar
E        A/D        G         A/C#
 Criei formas pra fazer você ver e entender
E       A/D              G      A/C#
 Eu tentei falar, dando sons a Minha voz
E             A/D            G            A/C#
 Você não Me ouviu, mas continuo a te esperar


E       Bm        F#m
Eu acredito em você
E             G 
Ouça a Minha voz
E                  Bm
Te estendo Minhas mãos
      G    F#m        E
Meu amor é incondicional

E        A/D    G               A/C#
 Quero fazer nascer o sol de um novo dia pra você
E          A/D           G             A/C#
 Trazer a Minha luz pra te mostrar os Meus caminhos
E         A/D           G            A/C#
 Eu vou estar sempre aqui, esperando por você
E       A/D             G      A/C#
 Eu não Me cansarei de te mostrar...

    E      Bm        F#m
Que Eu acredito em você
E             G 
Ouça a Minha voz
E                  Bm
Te estendo Minhas mãos
      G    F#m        E
Meu amor é incondicional

solinho:
(riff 1)
d|-------------------------------0----------------0--0-------|
A|------0------------0-----------0------------0----------0---|
F|--1-2---2-1----------------1-2-2-2-1-----2----2------2-----|
C|-2-------------6-7---7-6---------------2---2-------------2-|
G|-------------4-----------2-----------0---------------------|
D|-----------------------------------------------------------|

(riff 1)
Quanto tempo mais?
Qual a prova maior que a cruz?
Me entreguei por ti,
esta é a prova maior de amor...

E 
 Quanto tempo mais?
C#m              B          A
 Qual a prova maior que a cruz?
E 
 Me entreguei por ti,
C#m                B       A
 esta é a prova maior de amor...


E       Bm        F#m
Eu acredito em você
E             G 
Ouça a Minha voz
E                  Bm
Te estendo Minhas mãos
      G    F#m        E
Meu amor é incondicional

E       Bm        F#m
Eu acredito em você
E             G 
Ouça a Minha voz
E                  Bm
Te estendo Minhas mãos
      G    F#m        E
Meu amor é incondicional
Composição de Josué Alves / Marcelo Elias / Mauro Henrique
Colaboração e revisão:
  • Marcos Vinícius
18.624 exibições
  • Simplificar cifra
    • ½ Tom
    • A
    • Bb
    • B
    • C
    • Db
    • D
    • Eb
    • E
    • F
    • F#
    • G
    • Ab
  • Adicionar à lista

    0 comentários

    Ver todos os comentários
    00:00 / 00:00
    outros vídeos desta música
    repetir qualidade Automático
    Outros vídeos desta música
    00:00 / 00:00
    Automático
    Capítulos
    • Início
    • Tocando a música
    • Acordes da música
    • Ensinando Ritmo da música
    • Encerramento

    Cifra Club Pro

    Aproveite o Cifra Club com benefícios exclusivos e sem anúncios
    Cifra Club Pro
    Aproveite o Cifra Club com benefícios exclusivos e sem anúncios
    OK