Cifra Club

Meus Próprios Meios

Oficina G3

Cifra: Ao-vivo
exibições 24.359
Tom: D#
(intro) Cm F# Fm  Cm D#  Cm  D#  Cm  F#  Fm   ( C  D# G#  F Bb )

(afinação 2 tons e meio abaixo)


C |------------------------------------------------------------------}
G |------------------------------------------------------------------}
D#|------------------------------------------------------------------}
Bb|------------------------------------------------------------------}
F |--2--2-2-2-2--2-2-2---2-2-2----2--2-2-2-2---3---3----}
C |--0--0-0-0-0--0-0-0---0-0-0----0--0-0-0-0---5-0-5----}


C |------------------------------------------------------------------}
G |------------------------------------------------------------------}
D#|------------------------------------------------------------------}
Bb|------------------------------------------------------------------}
F |--2--2-2-2-2--2-2-2---2-2-2----2--2-2-2-2--6-5-3----}
C |--0--0-0-0-0--0-0-0---0-0-0----0--0-0-0-0--8-7-5----}


C |----------------------------------------------------------------}
G |----------------------------------------------------------------}
D#|---------------------------------------------------------------}
Bb|---------------------------------------------------------------}
F |--2-2-2--2-2-2--2-2-2--3--3-----------------------------}
C |--0-0-0--0-0-0--0-0-0--5-0------------------------------}


C |-----------------------------------------------------------------}
G |-----------------------------------------------------------------}
D#|-----------------------------------------------------------------}
Bb|-----------------------------------------------------------------}
F |--2-2-2--2-2-2--2-2-2--6-5-3-----------------------------}
C |--0-0-0--0-0-0--0-0-0--8-7-5-----------------------------}


Cm  D#  G#                   Fm  Bb Cm
Quantas vezes os meus próprios meios
     D# G#    Fm
Me levaram a lugar nenhum
Cm  D# G#             Fm  Bb Cm   D#
Cada    passo dado era um erro
                  G#           Fm
Que me afastava do objetivo

Cm
Buscar as coisas certas da maneira errada
G#                        Fm                Bb
É o mesmo que nadar contra a maré
C
Lutando pelas nossas próprias forças
G#                      Bb
Já entramos na batalha derrotados

G#
Mas é tempo de abrir os olhos
       Bb            Cm                 Bb Cm
Pois não temos pra onde correr
G#                                  Bb              Cm    Bb Cm
E entender que sem o Pai não somos nada
G#                        Bb
É o primeiro passo rumo a vitória

Cm               G#
Eu ando pela força do Senhor
Cm               G#
Eu vivo pelas Suas promessas
Cm            G#
A cada dia mato um leão
Cm            G#
A unção de Deus está em mim  (2x)

(intro e volta pro início)


 (riff)  ( Cm )
C |------------------------------------------------------------}
G |------------------------------------------------------------}
D#|------------------------------------------------------------}
Bb|--12------11------10------------------------------------}
F |------------------------------------------------------------}
C |-------0-0-----0-0-----0-0000-000-000-------------}


C |-----------------------------------------------------------------}
G |-----------------------------------------------------------------}
D#|-----------------------------------------------------------------}
Bb|--12------11------10----12---11---------------------------}
F |-----------------------------------------------------------------}
C |-------0-0-----0-0-----0-----0------0-0000-000-000----}


C |------------------------------------------------------------}
G |------------------------------------------------------------}
D#|------------------------------------------------------------}
Bb|--12------11------10------------------------------------}
F |------------------------------------------------------------}
C |-------0-0-----0-0-----0-0000-000-000-------------}


C |-----------------------------------------------------------------}
G |-----------------------------------------------------------------}
D#|-----------------------------------------------------------------}
Bb|--12------11------10---12--11---12------11-----10----}
F |-----------------------------------------------------------------}
C |-------0-0-----0-0-----0--0----0-----0-0-----0-0----0-0000-000-000---}


C |-----------------------------------------------------------------}
G |-----------------------------------------------------------------}
D#|-----------------------------------------------------------------}
Bb|--12------11------10----12---11---------------------------}
F |-----------------------------------------------------------------}
C |-------0-0-----0-0-----0-----0------0-0000-000-000----}


C |-------------------------------------------------------------}
G |-------------------------------------------------------------}
D#|------------------------------------------------------------}
Bb|--12------11------10------------------------------------}
F |------------------------------------------------------------}
C |-------0-0-----0-0-----0-0000-000-000-------------}


C |------------------------------------------------------------------}
G |------------------------------------------------------------------}
D#|------------------------------------------------------------------}
Bb|--12------11------10---12--11---12------11-----10-----}
F |------------------------------------------------------------------}
C |-------0-0-----0-0-----0--0----0-----0-0-----0-0--------}


(intro)

C |-------------------------------------------------------------------}
G |-------------------------------------------------------------------}
D#|------------------------------------------------------------------}
Bb|------------------------------------------------------------------}
F |--2--2-2-2-2--2-2-2---2-2-2----2--2-2-2-2---3---3----}
C |--0--0-0-0-0--0-0-0---0-0-0----0--0-0-0-0---5-0-5----}


C |------------------------------------------------------------------}
G |------------------------------------------------------------------}
D#|------------------------------------------------------------------}
Bb|------------------------------------------------------------------}
F |--2--2-2-2-2--2-2-2---2-2-2----2--2-2-2-2--6-5-3----}
C |--0--0-0-0-0--0-0-0---0-0-0----0--0-0-0-0--8-7-5----}


(solos) ( Cm D#   Cm  F#  Fm  finaliza e Cm )

(refrão)
(riff)
Acordes para:
    Colaboração e revisão:
    • Ivandro Junior

    0 comentários

      mostrar mais comentários

      Conseguiu tocar?

      4tocaram0ainda não

      Grave um vídeo tocando Meus Próprios Meios e mande pra gente!

      00:00 / 00:00
      outros vídeos desta música
      repetirqualidadeautomática
      Outro vídeos desta música
        00:00 / 00:00
        automática
        OK