Notificações Amigos pendentes

      Oficina G3

      O Caminho

      82.265 exibições
      Tom: F
      Intro: D  C  D  Bb (2x) D
      
      Ps. Essa música assim como todas do cd o tempo estão um tom abaixo da
      afinação normal.
      
      intro riff1
      
      D|-------|-----------------------------------------|
      A|-------|-----------------------------------------|
      F|-------|-----------------------------------------|
      C|-------|------------7--------------------5--5/7--|
      G|-------|-2--2-2-2---5---------2--2-2-2---3--3/5--|
      D|-6-5-3-|-0--0-0-0------6-5-3--0--0-0-0-----------|
      
      
      D|-----------------------------------------|-----|-------12ha------|
      A|-----------------------------------------|-----|-------------12ha|
      F|-----------------------------------------|-----|-----------------|
      C|------------7--------------------5--5/7--|-----|-----------------|
      G|-2--2-2-2---5---------2--2-2-2---3--3/5--|--2--|-----------------|
      D|-0--0-0-0------6-5-3--0--0-0-0-----------|--0--|-----------------|
      
      
      riff2
      
      D|-----------------------------|------------------------------|
      A|-----------------------------|------------------------------|
      F|-----------------------------|------------------------------|2x
      C|-----------------------------|------------------------------|
      G|---7-7-5-7--5-7-5-------5-5--|--7-7-5-7--5-7-5-------5-7-5--|
      D|--------------------6-5-3-3--|-------------------6-5-3-5-3--|
      
      
      riff3
      
      D|-------------------------------------------------|
      A|-------------------------------------------------|
      F|-------------------------------------------------|
      C|-------------------------------------------------|
      G|-7--7-7-7---5--5-5-5-5--7--7-7-7---5---9-9-9-9/5-|
      D|-5--5-5-5---3--3-3-3-3--5--5-5-5---3---7-7-7-7/3-|
      
      
      D|-----------------------------------------------|
      A|-----------------------------------------------|
      F|-----------------------------------------------|
      C|-----------------------------------------------|
      G|--7--7-7-7--5--5-5-5-5--7--7-7-7---5-----------|
      D|--5--5-5-5--3--3-3-3-3--5--5-5-5---3---6-5-3---|
      
      
      riff4 (coro)
      
      D|------------------------------------------------|
      A|------------------------------------------------|
      F|------------------------------------------------|2x
      C|--------------7-------------------------5--5/7--|
      G|--2---2-2-2---5-----------2---2-2-2-----3--3/5--|
      D|--0---0-0-0-------6-5-3---0---0-0-0-------------|
      
      
      D|------------------------------|
      A|------------------------------|
      F|------------------------------|
      C|------------------------------|
      G|---7-7-5-7--5-7-5------5-7-5--|
      D|-------------------6-5-3-5-3--|
      
      
      riff2  2x
      riff3
      riff4 (coro)
      
      riff3 (base do solo de teclado)
      
      
      D|----------------------------------------------------------|
      A|----------------------------------------------------------|
      F|---------------7-------------7----------------------------|
      C|--8-9--8-9--8-9-9-8--8-9--8-9-9~-8-7~-7-5~--7/8-7-5-7-5~~-|
      G|-7----7----7--------7----7--------------------------------|
      D|----------------------------------------------------------|
      
      
      D|-------------------------------------------|
      A|------------------10-------8---------------|
      F|-------------------------------------------|
      C|--------------------12------10----11--9-6--|
      G|-5-6-7----------------10------8-----9----7-|
      D|------5-5--5-5-5---------------------7-----|
      
      
      Refrão de novo, só q agora é em (E)
      
      
      D|--------------------------------------------|
      A|--------------------------------------------|
      F|--------------------------------------------|
      C|-------------9----------------------7--7/9--|
      G|--4--4-4-4---7----------4---4-4-4---5--5/7--|
      D|--2--2-2-2------8-7-5---2---2-2-2-----------|
      
      
      D|---------------------------------------------|
      A|---------------------------------------------|
      F|---------------------------------------------|
      C|-------------9----------------------7--------|
      G|--4--4-4-4---7----------4---4-4-4---5--------|
      D|--2--2-2-2------8-7-5---2---2-2-2------6-5-3-|
      
      
      riff4 (coro) 2x
      
      
      D|-----------------------------------|--------------------------------|
      A|-----------------------------------|--------------------------------|
      F|-----------------------------------|--------------------------------|
      C|-----------------------------------|---10-9-7-----------10-9-7------|
      G|---7-6-5--------------7-6-5----5-5-|------------9-8-6------------5-5|
      D|-0-------0--5-4-3--0--------0--3-3-|-0--------0--------0-------0-3-3|
      
      
      D|--------------------------------|----------------------------------|
      A|--------------------------------|----------------------------------|
      F|--------------------------------|---11-10-9-----------11-10-9------|
      C|--------------------------------|--------------9-8-7---------------|
      G|---7-6-5-----------7-6-5----5-5-|----------------------------------|
      D|-0-------0-5-4-3-0-------0--3-3-|-0----------0-------0--------0-3-3|
      
      
      D|-------------------------------------------------------------------|
      A|-------------------------------------------------------------------|
      F|-------------------------------------------------------------------|
      C|-------------------------------------------------------------------|
      G|---7-6-5-----------7-6-5----5-5------------------------------------|
      D|-0-------0-5-4-3-0-------0--3-3---------------------... continua
      
      
      D...
      Preciso viver, preciso mudar,
      preciso de algo para acreditar
      me sinto tão fraco, desisto da vida
      me vejo em um beco sem saída
      
      Gm            F                   Gm
      ouvi sobre um Deus que mandou seu Filho
                  F             Gm   F     Gm F
      para que houvesse um novo destino ao mundo
      
      D (E) C (D)   D (E)       Bb (C)
      Deus,    me mostre o caminho
      D (E) C (D)       D (E)          Bb (C)
      Deus,    não me deixe andar sozinho
      
      D...
      agora consigo viver, consigo pensar,
      encontrei a vida, posso respirar

      Comentários 2

      140 .
      • Anderson Anderson: Em 14/05/2014 17:31

        musica show!!!

      • tero tero: Em 14/12/2010 20:39

        o q ta acontecendo com esse site to colocando exibir acordes e não vai

      140 cancelar

      conseguiu tocar?

      covers

      Grave um vídeo tocando O Caminho e mande pra gente!

      Ex.: http://www.youtube.com/watch?v=0IvSvIwGdwk
      ver covers de outras músicas »
      0:00 / 0:00

      Capítulos

        2 versões de violão dificuldade exibições contribuição e correção
        2 versões de guitarra dificuldade exibições contribuição e correção
        2 versões de cavaco dificuldade exibições contribuição e correção
        2 versões de teclado dificuldade exibições contribuição e correção
        1 versão de baixo exibições contribuição e correção
        1 versão de Guitar Proformatodownloadscontribuição
        play/pausefechar subir/descer velocidade
        6ª corda E5ª corda A4ª corda D3ª corda G2ª corda B1ª corda E
          acordes
          publicidade
          fechar
          ok