Cifra Club

Perfeito Amor

Oficina G3

Cifra: Versão 2 (violão e guitarra)
tom: F
(intro) G Bb F
                                                                   h  h  h
E|-------------------------------------------------------------------------|
B|-1s3-1h3p1-0-1-0--------------1s3~-5s3-1-0-------------------------------|
G|-----------------2-0--0-2-3~-----------------0-3-2h3p2p0-2-0--------12-7-|
D|-------------------------------------------------------------3--12-------|
A|-------------------------------------------------------------------------|
E|-------------------------------------------------------------------------|

E|--------------------------------------|
B|--------------------------------------|
G|--------------------------------------|
D|-0-2-3-2-0---0h2p0-0---0----2h3p2p0---|
A|-----------3---------3----3---------3-|
E|--------------------------------------|

G                     Bb   F     G
 Se todos vivessem o amo...o...or
      Bb       F
 Como Deus o criou
G                          Bb    F
 O amor que não guarda ranco.....or
G                Bb       F
 Tudo espera e suporta a dor

E|------------------------------------------------|
B|-0--1p0-1s3-3h5p3s1~-1h3p1p0--1p0---------------|
G|----------------------------------2s3-3-3-2-0---|
D|----------------------------------------------3-|
A|------------------------------------------------|
E|------------------------------------------------|

Bb          F/A  Gm7
 Se não houver amor
      F             Bb
 Não vale apena viver
         F/A     Gm7
 O verdadeiro amor
    F                  Eb    D D4 D
 Só vive quem anda com Deus

F    Bb     Dm       C                 F
 O Amor de Deus pra sempre eu quero viver
     Bb     Dm    C                     Bb9
 Perfeito amor, eterna essência de Deus

E|-----------------------------------------------------------------|
B|---8---6-5-----------------------------3-5-6-5-3-5-3-------------|
G|-5---5-----7-5---5-4~------------2-4-5---------------5-7---------|
D|---------------7-----------2-3-5--------------------------5s7s5~-|
A|-----------------------------------------------------------------|
E|-----------------------------------------------------------------|

E|---------------------------------------------------|
B|-6p5---5-6-7-5h6p5---------------------------------|
G|-----7-------------7-5s7---------------------------|
D|-------------------------7s5-------5h7p5-----------|
A|-----------------------------7-5-8-------8-7-5-----|
E|-----------------------------------------------8-5-|

E|-----------------------------------------------------------------------1-|
B|-----------------------------------------------------------------------1-|
G|---7-------10---9s7-----5-5s7~--5s4s5s4~--2h3p2------------------------2-|
D|--------------------5s7-------------------------5-3-2---2h3p2----------2-|
A|------------------------------------------------------5-------5-3-2-0--1-|
E|-3---3-3------5----------------------------------------------------------|

Bb          F/A  Gm7
 Se não houver amor
      F             Bb
 Não vale apena viver
         F/A     Gm7
 O verdadeiro amor
    F                  Eb    D D4 D
 Só vive quem anda com Deus

F    Bb     Dm       C                 F
 O Amor de Deus pra sempre eu quero viver
     Bb     Dm    C                     Bb9
 Perfeito amor, eterna essência de Deus

Final : Bb9  Gm  G#  F  G
Composição de Duca Tambasco / Juninho Afram / PG
Colaboração e revisão:
31.519 exibições
    • ½ Tom
    • A
    • Bb
    • B
    • C
    • Db
    • D
    • Eb
    • E
    • F
    • F#
    • G
    • Ab
  • Adicionar à lista

    0 comentários

    Ver todos os comentários
    00:00 / 00:00
    Outros vídeos desta música
    Repetir Qualidade Automático
    Outros vídeos desta música
    00:00 / 00:00
    Automático

    Cifra Club Pro

    Aproveite o Cifra Club com benefícios exclusivos e sem anúncios
    Cifra Club Pro
    Aproveite o Cifra Club com benefícios exclusivos e sem anúncios
    OK