Quem

Oficina G3

Composição de: Juninho Afram
tom: F
Introdução:
e|---0------0------0----------------------------
B|-----3------3------3-----5-------------------- REPETE
G|----------------------------------------------  (3x)
D|-0------2------3------3/5--0-3-2-0------------
A|----------------------------------------------
E|----------------------------------------------

e|---0------0------0--------------------1-0-------------------
B|-----3------3------3-----5------------------1----------1----
G|------------------------------------2---------2---0---------
D|-0------2------3------3/5--0-3-2-0------------0-------------
A|------------------------------------------------------------
E|------------------------------------------------------------

e|------1-0-------------------------------------
B|------------1----------1----------------------
G|----2---------2---0---------------------------
D|-0------------0-------------------------------
A|----------------------------------------------
E|----------------------------------------------
Dm            C   Bb      Dm            C   Bb 
Tantas coisas prá pensar, tantas coisas prá lembrar,
Dm             C   Bb      Dm            C   Bb
Algumas coisas prá sorrir, muitas outras prá chorar.

Dm           C           Dm
Quem vai ouvir, a minha voz?
              C             Bb       F  G
Quem vai enxugar as minhas lágrimas? Quem?

Dm            C   Bb      Dm            C   Bb
Tantas coisas prá vencer, tantas coisas prá esquecer,
Dm            C   Bb    Dm            C   Bb
Não há força prá lutar, falta coragem prá encarar.
Página 1 / 1

Letras e título
Acordes e artista

resetar configurações
OK