Notificações Amigos pendentes

      Oficina G3

      Tua Mão

      135.533 exibições
      Tom: C
      Intro 2x: C9  Am
      
      C9                  Em
      Quando nada tem razão
             D/F#         C9
      O dia passa sem se ver
                                Em    Am   G D  C9
      Parece estar tudo contra mim
      Riff:
      
                    G  F
      E|-------------------|
      B|-------------------|
      G|--5/7---7-7/09-09--|
      D|--x/x---x-x/xx-xx--|
      A|--3/5---5-5/07-07--|
      E|-------------------|
      
      
      C9                  Em
      Quando nada tem razão
             D/F#         C9
      O dia passa sem se ver
                                 Em
      Parece estar tudo contra mim
      Riff:
      
      E|--------------------|
      B|--------------------|
      G|----5-4-------------|
      D|--------5-5/7-------|
      A|--------------------|
      E|--------------------|
      
      
      C9                          Em
      Quando me encontro em aflição
                 D/F#        C9
      Correndo sem ter direção
                               G
      Eu penso que chegou meu fim
      
      Am                   C9
      Quero sentir a Tua mão
      Am                  C9 D
      Segurando a minha mão
      
        Am          G   C
      Ouvir a tua voz a me chamar
      
       Riff: Em  G  D
      E|--------------------|
      B|--------------------|
      G|--------------------|
      D|--------------------|
      A|--3-2---------------|
      E|------3-0-5-3-2-3-0-|
      
      
      C9             D
      Vem apagar esta solidão
             Em         G
      Me tirar dessa escuridão
      C9            D         Em
      Quero ter pra sempre a Tua paz
      Riff:
      
      E|--------------------|
      B|--------------------|
      G|-5-4----------------|
      D|------5-5/7---------|
      A|--------------------|
      E|--------------------|
      
      
      C9          D              Em
      Nessa tempestade eu posso ver
                G           C9
      A Tua presença e o Teu poder
               D                G G G G G
      Me sustentando em Teu querer
      
      Am                   C9
      Quero sentir a Tua mão
      Am                  C9 D
      Segurando a minha mão
      Am         G       C9
      Ouvir a Tua voz a me chamar
      Am         G
      Ouvir a Tua voz
      
         Ab    D#  Fm  C#  Ab  D#  C#  Bbm       Bbm C G
      a me chamar
      
      Solo (ta meio simplificado):
      
      
      E|------------------------------------------------------------------------------------------------------------|
      B|-11-13-13---11-13-13----14-13-11-13------16----14----13----11---11/13-13-13--------------16-13-11--9-9------|
      G|----------8----------13---------------13----13----12----10----8--------------------13-15--------------------|
      D|-----------------------------------------------------------------------------13-15--------------------------|
      A|------------------------------------------------------------------------------------------------------------|
      E|------------------------------------------------------------------------------------------------------------|
      
      
      E|---------------------------------------------------------------------------------|
      B|---------------------------------------------------------------------------------|
      G|-10-8-10\12-------8--------------------------------------------------------------|
      D|-------------8-10---8-10-10-8-6-6/8--T15-8p6--T14-8p6----------------------5-----|
      A|------------------------------------------------------T15-8p6-----------7--3--5--|
      E|--------------------------------------------------------------T15-8p6---5-----3--|
      
                                                                                A5 C5 G5
      
       Am                   C9
      Quero sentir a Tua mão
      Am                  C9
      Segurando a minha mão
      Am           G     C9      Am
      Ouvir a Tua voz a me chamar
      
                         C9
      Quero sentir a Tua mão
      Am                  C9 D
      Segurando a minha mão
      Am         G       C9
      Ouvir a Tua voz a me chamar
      Am         G       C9
      Ouvir a Tua voz a me chamar
      
        Am          G   C
      Ouvir a tua voz a me chamar
       Riff:    Em   G    D
      
      E|--------------------|
      B|--------------------|
      G|-5-4----------------|
      D|------5-5/7---------|
      A|--------------------|
      E|--------------------|
      
      
      ( C9  Am )  (2x)
        Composição: Cristiano Sheslen e Carlos EduardoColaboração e revisão:
        • davithecrazy
        • manolex
        • Royal bass
        • will
        • +2

        Comentários 11

        140 .
        • Anderson Anderson: Em 19/08/2014 19:19

          mto bom!! gostei!!!!!!!

        • EsterSullivan EsterSullivan: Em 31/10/2013 13:46

          Tem o solo no Guitar Pro, muito fácil..

        • edunomad edunomad: Em 01/07/2013 17:31

          transmite as dores de ser um cristão...demais

        • betuel.crisley betuel.crisley: Em 25/05/2013 22:25

          mtt massa!!

        • gutohvr gutohvr: Em 20/11/2011 23:32

          LINDAAAA

        • graycellen graycellen: Em 29/10/2011 16:59

          Perfeita²

        • xitra xitra: Em 01/10/2011 14:05

          Leeduarde envie alguma música que vc aprendeu

        • xitra xitra: Em 01/10/2011 14:04

          Leeduarte vc estar de parabéns

        • thiagohidan thiagohidan: Em 02/08/2011 08:43

          Perfeita !

        • eduardomachado eduardomachado: Em 02/04/2011 16:04

          Essa Musica é Bem dificl mas Pra quem Treinaa todo diaa Como euu Aprendii em Um Mesmo diaa euu Aprendii soo o Solo q é meii dificil

        140 cancelar

        conseguiu tocar?

        • •••
        anderson luiz de franca12.759 visualizações
        ver covers de outras músicas »
        0:00 / 0:00

        Capítulos

          2 versões de violão dificuldade exibições contribuição e correção
          2 versões de guitarra dificuldade exibições contribuição e correção
          2 versões de cavaco dificuldade exibições contribuição e correção
          2 versões de teclado dificuldade exibições contribuição e correção
          1 versão de Guitar Proformatodownloadscontribuição
          play/pausefechar subir/descer velocidade
          6ª corda E5ª corda A4ª corda D3ª corda G2ª corda B1ª corda E
            acordes
            publicidade
            fechar
            ok