Enviar cifraEntrar

Tua Mão

Oficina G3

Cifra: Principal
exibições 136.871
Tom: C
Intro 2x: C9  Am

C9                  Em
Quando nada tem razão
       D/F#         C9
O dia passa sem se ver
                          Em    Am   G D  C9
Parece estar tudo contra mim
Riff:

              G  F
E|-------------------|
B|-------------------|
G|--5/7---7-7/09-09--|
D|--x/x---x-x/xx-xx--|
A|--3/5---5-5/07-07--|
E|-------------------|


C9                  Em
Quando nada tem razão
       D/F#         C9
O dia passa sem se ver
                           Em
Parece estar tudo contra mim
Riff:

E|--------------------|
B|--------------------|
G|----5-4-------------|
D|--------5-5/7-------|
A|--------------------|
E|--------------------|


C9                          Em
Quando me encontro em aflição
           D/F#        C9
Correndo sem ter direção
                         G
Eu penso que chegou meu fim

Am                   C9
Quero sentir a Tua mão
Am                  C9 D
Segurando a minha mão

  Am          G   C
Ouvir a tua voz a me chamar

 Riff: Em  G  D
E|--------------------|
B|--------------------|
G|--------------------|
D|--------------------|
A|--3-2---------------|
E|------3-0-5-3-2-3-0-|


C9             D
Vem apagar esta solidão
       Em         G
Me tirar dessa escuridão
C9            D         Em
Quero ter pra sempre a Tua paz
Riff:

E|--------------------|
B|--------------------|
G|-5-4----------------|
D|------5-5/7---------|
A|--------------------|
E|--------------------|


C9          D              Em
Nessa tempestade eu posso ver
          G           C9
A Tua presença e o Teu poder
         D                G G G G G
Me sustentando em Teu querer

Am                   C9
Quero sentir a Tua mão
Am                  C9 D
Segurando a minha mão
Am         G       C9
Ouvir a Tua voz a me chamar
Am         G
Ouvir a Tua voz

   Ab    D#  Fm  C#  Ab  D#  C#  Bbm       Bbm C G
a me chamar

Solo (ta meio simplificado):


E|------------------------------------------------------------------------------------------------------------|
B|-11-13-13---11-13-13----14-13-11-13------16----14----13----11---11/13-13-13--------------16-13-11--9-9------|
G|----------8----------13---------------13----13----12----10----8--------------------13-15--------------------|
D|-----------------------------------------------------------------------------13-15--------------------------|
A|------------------------------------------------------------------------------------------------------------|
E|------------------------------------------------------------------------------------------------------------|


E|---------------------------------------------------------------------------------|
B|---------------------------------------------------------------------------------|
G|-10-8-10\12-------8--------------------------------------------------------------|
D|-------------8-10---8-10-10-8-6-6/8--T15-8p6--T14-8p6----------------------5-----|
A|------------------------------------------------------T15-8p6-----------7--3--5--|
E|--------------------------------------------------------------T15-8p6---5-----3--|

                                                                          A5 C5 G5

 Am                   C9
Quero sentir a Tua mão
Am                  C9
Segurando a minha mão
Am           G     C9      Am
Ouvir a Tua voz a me chamar

                   C9
Quero sentir a Tua mão
Am                  C9 D
Segurando a minha mão
Am         G       C9
Ouvir a Tua voz a me chamar
Am         G       C9
Ouvir a Tua voz a me chamar

  Am          G   C
Ouvir a tua voz a me chamar
 Riff:    Em   G    D

E|--------------------|
B|--------------------|
G|-5-4----------------|
D|------5-5/7---------|
A|--------------------|
E|--------------------|


( C9  Am )  (2x)
  • 1
  • 2
  • 3
  • 4
  • 5
  • 6
  • 7
  • 8
  • 9
  • 10
  • 11
  • 12
    Acordes para:

      0 comentários

        mostrar mais comentários

        Conseguiu tocar?

        30tocaram0ainda não

        Grave um vídeo tocando Tua Mão e mande pra gente!

        00:00 / 00:00
        outros vídeos desta música
        repetirqualidadeautomática
        • automática
        Outro vídeos desta música
          00:00 / 00:00
          automática
          • automática
          Acordes para:violão e guitarra
          dificuldadeexibiçõescontribuições
          1 versão de Guitar Proformatodownloadscontribuição
          fecharplay/pause subir/descer velocidade
            acordes
            fechar
            OK
            Feedback