Cifra Club

Wild International

One Day As A Lion

Cifra: Principal (violão e guitarra)
Tom: Fm
Intro:   X9    0:53         Riff:   X3   0:20     X1  0:03
E|-----------------------||----------------------||----------|
B|-----------------------||----------------------||----------|
G|-----------------------||----------------------||----------|
D|-----------------------||----------2h3---------||-2h3------|
A|-3-3-1-4--3--3-3--3-3--||-3h4-4-4------1h3-3-3-||-----3----|
E|-----------------------||----------------------||----------|

    Verse: X1         0:11                      X6      0:32
E|---------------------------------------||-----------------------|
B|---------------------------------------||-----------------------|
G|---------------------------------------||-----------------------|
D|---------------------------------------||-----------------------|
A|-3--3-3--3-3--3-3--3-3--3-3--3-3--3-3--||-3-3-1-4--3--3-3--3-3--|
E|---------------------------------------||-----------------------|

  Riff 2:    X7   0:34       X1         Breakdown:   X5       0:20
E|----------------------|-----------||-----------------------------|
B|----------------------|-----------||-----------------------------|
G|----------------------|-----------||-----------------------------|
D|----------2h3---------|-----------||-----------------------------|
A|-3h4-4-4------1h3-3-3-|-3-3-3-3-3-||-----------------------------|
E|----------------------|-----------||-6-6-6-6-6-4h6-4h6-6-7-6-4h6-|

     X8      0:22      Outro:  X5 0:20
E|-----------------||----------------------|
B|-----------------||----------------------|
G|-----------------||----------------------|
D|-----------------||----------2h3---------|
A|-----------------||-3h4-4-4------1-3-3-3-|
E|-4h6-6-7-6-4h6---||----------------------|
exibições 354
Acordes para:
    Composição: One Day as a Lion Colaboração e revisão:
    • João Silva

    0 comentários

    mostrar mais comentários

    Conseguiu tocar?

    0 tocaram 0 ainda não

    Grave um vídeo tocando Wild International e mande pra gente!

    00:00 / 00:00
    outros vídeos desta música
    repetir qualidade Automático
    Outros vídeos desta música
    00:00 / 00:00
    Automático
    OK