Cifra Club

Lord Of Evil

Onslaught

Cifra: Principal (violão e guitarra)
tom: E
Album: Power From Hell

Version 1.0 - (02/05/06)

Transcribed By: Steve
Email:          *


.  - palm mute           /  - slide up to
\  - slide down to       ~  - vibrato
p  - pull off            Suffixes for bend
t  - tap                 f  - full bend    h - half bend
ph - pinched harmonic    q  - quarter bend t - tap bend
                         p  - pre bend
*  - see comment         ^  - Hold bend    r release bend
,  - slight palm mute    () - ghost note, sustained note
"  - tremolo note         - harmonic

Tuning E A D G B E

 Intro / Main Riff


  [-PM-]     [-PM-]    [-PM-]
|-----------------------------------------------|
|-----------------------------------------------|
|-----------------------------------------------|
|-----------------------------------------------|
|-2-2-2-5/7--2-2-2-8\7--2-2-2-5/7-0-3-2-0-------|
|-0-0-0-3/5--0-0-0-6\5--0-0-0-3/5---------3-2-0-| Rpt

 Guitar 1
  [-PM-]     [-PM-]    [-PM-]
[-----------------------------------------------|
[-----------------------------------------------|
[-----------------------------------------------|
[-----------------------------------------------|
[-2-2-2-5/7--2-2-2-8\7--2-2-2-5/7-0-3-2-0-------|
[-0-0-0-3/5--0-0-0-6\5--0-0-0-3/5---------3-2-0-|
[Guitar 2
[-----------------------------------------------|
[-----------------------------------------------|
[-----------------------------------------------|
[-----------------------------------------------|
[-------5/7--------8\7--------5/7---------------|
[-------3/5--------6\5--------3/5---------------| Rpt 3 X

 Guitar 1
  [-PM-]     [-PM-]    [-PM-] h h h
[-------------------------------------------------|
[-------------------------------------------------|
[-------------------------------------------------|
[-------------------------------------------------|
[-2-2-2-5/7--2-2-2-8\7--2-2-2-5-6-7-0-3-2-0-------|
[-0-0-0-3/5--0-0-0-6\5--0-0-0---------------3-2-0-|
[Guitar 2
[-------------------------------------------------|
[-------------------------------------------------|
[-------------------------------------------------|
[-------------------------------------------------|
[-------5/7--------8\7----------------------------|
[-------3/5--------6\5----------------------------|

 Both guitars

  [-PM-]     [-PM-]    [-PM-]
|-----------------------------------------------|
|-----------------------------------------------|
|-----------------------------------------------|
|-----------------------------------------------|
|-2-2-2-5/7--2-2-2-8\7--2-2-2-5/7-0-3-2-0-------|
|-0-0-0-3/5--0-0-0-6\5--0-0-0-3/5---------3-2-0-| Rpt 4 x

 Guitar 1
[------------------------------------------------------------|
[----------------10-8\7-8p7\5-7-5\3-5-3\1--------------------|
[-----------------------------------------4-------(4)-----/--|
[------------------------------------------------------------|
[-2------(2)-------------------------------------------------|
[-0------(0)-------------------------------------------------|
[Guitar 2
[------------------------------------------------------------|
[------------------------------------------------------------|
[------------------------------------------------------------|
[----------------2--0---0------------------------------------|
[-2------(2)----------4---4-2-4-2-0-2-0---2------(2)---------|
[-0------(0)----------------------------3-0------(0)---------|

 Guitar 1
[---------------------------------------------|
[-10-8\7-8p7\5-7-5\3-5-3\1--------------------|
[--------------------------4-------(4)-----/--|
[---------------------------------------------|
[-2------(2)----------------------------------|
[-0------(0)----------------------------------|
[Guitar 2
[---------------------------------------------|
[---------------------------------------------|
[---------------------------------------------|
[-2--0---0------------------------------------|
[------4---4-2-4-2-0-2-0---2------(2)---------|
[------------------------3-0------(0)---------| Rpt

 Guitar 1
[------------------------|
[-10-8\7-8p7\5-7-5\3-5-3-|
[------------------------|
[------------------------|
[------------------------|
[------------------------|
[Guitar 2
[------------------------|
[------------------------|
[------------------------|
[-2--0---0---------------|
[------4---4-2-4-2-0-2-0-|
[------------------------|

 Guitar 1
  [-PM-]     [-PM-]    [-PM-]
[-----------------------------------------------|
[-----------------------------------------------|
[-----------------------------------------------|
[-----------------------------------------------|
[-2-2-2-5/7--2-2-2-8\7--2-2-2-5/7-0-3-2-0-------|
[-0-0-0-3/5--0-0-0-6\5--0-0-0-3/5---------3-2-0-| 
[Guitar 2
[-----------------------------------------------|
[---------(3)-----------------------------------|
[-----------------------------------------------|
[-----------------------------------------------|
[-----------------------------------------------|
[-----------------------------------------------|

 Rpt Main Riff 11 X

 Bridge
                            [---PM----]  [-------PM------]
|------------------------------------------------------------|
|---------------------------------------------------6-7-8-8b-|
|---------------------------------------------5-6-7----------|
|-2----(2)----/7---/8----2-------------2-5-6-7---------------|
|-0----(0)----/5---/6----0---0-0-0-0-0-0---------------------|
|------------------------------------------------------------|Rpt 4 X

 Chorus

|---------------------------------------------|
|---------------------------------------------|
|---------------------------------------------|
|-4-------(4)-------/9-9\7-------(7)------/9\-|
|-2-------(2)-------/7-7\5-------(5)------/7\-|
|---------------------------------------------|

|----------------------------------------------------------|
|----------------------------------------------------------|
|----------------------------------------------------------|
|-4-------(4)-------/9-9\7-------(7)------2-0---0----------|
|-2-------(2)-------/7-7\5-------(5)----------4---4-2p0-2--|
|----------------------------------------------------------|

 Rpt Main Riff 4 X

 Guitar 1
[------------------------------------------------------------|
[----------------10-8\7-8p7\5-7-5\3-5-3\1--------------------|
[-----------------------------------------4-------(4)-----/--|
[------------------------------------------------------------|
[-2------(2)-------------------------------------------------|
[-0------(0)-------------------------------------------------|
[Guitar 2
[------------------------------------------------------------|
[------------------------------------------------------------|
[------------------------------------------------------------|
[----------------2--0---0------------------------------------|
[-2------(2)----------4---4-2-4-2-0-2-0---2------(2)---------|
[-0------(0)----------------------------3-0------(0)---------|

 Guitar 1
[---------------------------------------------|
[-10-8\7-8p7\5-7-5\3-5-3\1--------------------|
[--------------------------4-------(4)-----/--|
[---------------------------------------------|
[-2------(2)----------------------------------|
[-0------(0)----------------------------------|
[Guitar 2
[---------------------------------------------|
[---------------------------------------------|
[---------------------------------------------|
[-2--0---0------------------------------------|
[------4---4-2-4-2-0-2-0---2------(2)---------|
[------------------------3-0------(0)---------| Rpt

 Guitar 1
[------------------------|
[-10-8\7-8p7\5-7-5\3-5-3-|
[------------------------|
[------------------------|
[------------------------|
[------------------------|
[Guitar 2
[------------------------|
[------------------------|
[------------------------|
[-2--0---0---------------|
[------4---4-2-4-2-0-2-0-|
[------------------------|

 Guitar 1
  [-PM-]     [-PM-]    [-PM-]
[-----------------------------------------------|
[-----------------------------------------------|
[-----------------------------------------------|
[-----------------------------------------------|
[-2-2-2-5/7--2-2-2-8\7--2-2-2-5/7-0-3-2-0-------|
[-0-0-0-3/5--0-0-0-6\5--0-0-0-3/5---------3-2-0-| 
[Guitar 2
[-----------------------------------------------|
[---------(3)-----------------------------------|
[-----------------------------------------------|
[-----------------------------------------------|
[-----------------------------------------------|
[-----------------------------------------------|
 Rpt Verse
 Rpt Chorus

 Rpt Main Riff 4 X


 Guitar 1
[------------------------------------------------------------|
[----------------10-8\7-8p7\5-7-5\3-5-3\1--------------------|
[-----------------------------------------4-------(4)-----/--|
[------------------------------------------------------------|
[-2------(2)-------------------------------------------------|
[-0------(0)-------------------------------------------------|
[Guitar 2
[------------------------------------------------------------|
[------------------------------------------------------------|
[------------------------------------------------------------|
[----------------2--0---0------------------------------------|
[-2------(2)----------4---4-2-4-2-0-2-0---2------(2)---------|
[-0------(0)----------------------------3-0------(0)---------|

 Guitar 1
[---------------------------------------------|
[-10-8\7-8p7\5-7-5\3-5-3\1--------------------|
[--------------------------4-------(4)-----/--|
[---------------------------------------------|
[-2------(2)----------------------------------|
[-0------(0)----------------------------------|
[Guitar 2
[---------------------------------------------|
[---------------------------------------------|
[---------------------------------------------|
[-2--0---0------------------------------------|
[------4---4-2-4-2-0-2-0---2------(2)---------|
[------------------------3-0------(0)---------| Rpt

 Guitar 1
[------------------------|
[-10-8\7-8p7\5-7-5\3-5-3-|
[------------------------|
[------------------------|
[------------------------|
[------------------------|
[Guitar 2
[------------------------|
[------------------------|
[------------------------|
[-2--0---0---------------|
[------4---4-2-4-2-0-2-0-|
[------------------------|

 Guitar 1
  [-PM-]     [-PM-]    [-PM-]
[-----------------------------------------------|
[-----------------------------------------------|
[-----------------------------------------------|
[-----------------------------------------------|
[-2-2-2-5/7--2-2-2-8\7--2-2-2-5/7-0-3-2-0-------|
[-0-0-0-3/5--0-0-0-6\5--0-0-0-3/5---------3-2-0-| 
[Guitar 2
[-----------------------------------------------|
[---------(3)-----------------------------------|
[-----------------------------------------------|
[-----------------------------------------------|
[-----------------------------------------------|
[-----------------------------------------------|
 Rpt Verse and Bridge
 Rpt Chorus
 Rpt Main Riff 4 X


 Guitar 1
[------------------------------------------------------------|
[----------------10-8\7-8p7\5-7-5\3-5-3\1--------------------|
[-----------------------------------------4-------(4)-----/--|
[------------------------------------------------------------|
[-2------(2)-------------------------------------------------|
[-0------(0)-------------------------------------------------|
[Guitar 2
[------------------------------------------------------------|
[------------------------------------------------------------|
[------------------------------------------------------------|
[----------------2--0---0------------------------------------|
[-2------(2)----------4---4-2-4-2-0-2-0---2------(2)---------|
[-0------(0)----------------------------3-0------(0)---------|

 Guitar 1
[---------------------------------------------|
[-10-8\7-8p7\5-7-5\3-5-3\1--------------------|
[--------------------------4-------(4)-----/--|
[---------------------------------------------|
[-2------(2)----------------------------------|
[-0------(0)----------------------------------|
[Guitar 2
[---------------------------------------------|
[---------------------------------------------|
[---------------------------------------------|
[-2--0---0------------------------------------|
[------4---4-2-4-2-0-2-0---2------(2)---------|
[------------------------3-0------(0)---------| Rpt

 Guitar 1
[------------------------|
[-10-8\7-8p7\5-7-5\3-5-3-|
[------------------------|
[------------------------|
[------------------------|
[------------------------|
[Guitar 2
[------------------------|
[------------------------|
[------------------------|
[-2--0---0---------------|
[------4---4-2-4-2-0-2-0-|
[------------------------|

 Guitar 1
  [-PM-]     [-PM-]    [-PM-]
[-----------------------------------------------|
[-----------------------------------------------|
[-----------------------------------------------|
[-----------------------------------------------|
[-2-2-2-5/7--2-2-2-8\7--2-2-2-5/7-0-3-2-0-------|
[-0-0-0-3/5--0-0-0-6\5--0-0-0-3/5---------3-2-0-| 
[Guitar 2
[-----------------------------------------------|
[---------(3)-----------------------------------|
[-----------------------------------------------|
[-----------------------------------------------|
[-----------------------------------------------|
[-----------------------------------------------|

 [---------PM-----------]     h~~~
|---------------------------------|
|---------------------------------|
|---------------------------------|
|---------------------------------|
|-2-2-2-2-2-2-2-2-2-2-2-2---------|
|-0-0-0-0-0-0-0-0-0-0-0-0-3p2-3---|

 [------PM-------]    h   h   h   h   h    
|-----------------------------------------|
|-----------------------------------------|
|-----------------------------------------|
|-----------------3p2-3p2-3p2-------------|
|-2-2-2-2-2-2-2-2-------------3p2-3p2-3p2-|
|-0-0-0-0-0-0-0-0-------------------------|

 Rpt above riffs 10 X


 [---------PM-----------]     h~~~
|---------------------------------|
|---------------------------------|
|---------------------------------|
|---------------------------------|
|-2-2-2-2-2-2-2-2-2-2-2-2---------|
|-0-0-0-0-0-0-0-0-0-0-0-0-3p2-3---|

 [------PM-------]    h   h   h   h   h    
|-----------------------------------------|
|-----------------------------------------|
|-----------------------------------------|
|-----------------3p2-3p2-3p2-------------|
|-2-2-2-2-2-2-2-2-------------3p2-3p2-3p2-|
|-0-0-0-0-0-0-0-0-------------------------|

 Rpt above riffs 4 X


|-----------------------------------------------------------------|
|-----------------------------------------------------------------|
|-------------------------------------------------------------9-9-|
|-------------------------------------------------------------9-9-|
|-2---------------------------(2)-----------------------------7-7-|
|-0---------------------------(0)---------------------------------|


END

Composição de Nige Rockett / Onslaught / Paul Mahoney
234 exibições
    • ½ Tom
    • A
    • Bb
    • B
    • C
    • Db
    • D
    • Eb
    • E
    • F
    • F#
    • G
    • Ab
  • Adicionar à lista

    0 comentários

    Ver todos os comentários

    Conseguiu tocar?

    0 Tocaram 0 Ainda não

    Grave um vídeo tocando Lord Of Evil e nos envie!

    00:00 / 00:00
    Outros vídeos desta música
    Repetir Qualidade Automático
    Outros vídeos desta música
    00:00 / 00:00
    Automático

    Cifra Club Pro

    Aproveite o Cifra Club com benefícios exclusivos e sem anúncios
    Cifra Club Pro
    Aproveite o Cifra Club com benefícios exclusivos e sem anúncios
    OK