Sem Medo de Amar

Onze:20

Composição de: Guga Fernandes / Oséas Marquex
tom: F#
Intro: F#  C#  B9 (2x)
       F#  C#  G#m  B9 (2x)

Solo Intro, Refrão e Final:
E|-7-6h7p6----------7-6h7p6-------9-------------------|
B|---------7-9-7-6----------7-9-7---------------------|
G|----------------------------------------------------|
D|----------------------------------------------------|
A|----------------------------------------------------|
E|----------------------------------------------------|

Primeira parte:

F#             C#
   Ontem te falei 
              B9
Que você é tudo que eu mais quero

E o meu coração só tem lugar 
       F#       C#
Pra você, só você
                 G#m
Essa mistura louca de desejo
                   B9        C#
Me perco toda vez que eu te vejo

Pré-refrão:

    D#m
Eu sei
                  A#m
Sem você não tem rima a minha canção
D#m                       A#m
    Você inspira os meus sonhos
                Am
Eu venço a solidão

 G#m
Toda vez que eu ouço a sua voz
                      A#m
Sinto o gosto do seu beijo
  B9           F#/A#
Quero ser seu mundo
         G#m
Vem com tudo
       F#          C#7(4/9)
Vem matar o meu desejo

Refrão:
E|-7-6h7p6----------7-6h7p6-------9-------------------|
B|---------7-9-7-6----------7-9-7---------------------|
G|----------------------------------------------------|
D|----------------------------------------------------|
A|----------------------------------------------------|
E|----------------------------------------------------|

  F#         C#      G#m
Quero mergulhar no azul desse olhar
   B9
Poder navegar
  F#        C#      G#m
Quero te dizer sem medo de amar
    B9
Eu quero você

  F#         C#      G#m
Quero mergulhar no azul desse olhar
   B9
Poder navegar
  F#        C#      G#m
Quero te dizer sem medo de amar
    B9             F#  C#  G#m
Eu quero você pra mim
     B9            F#  C#  G#m  B9
Eu quero você pra mim

Primeira parte:

F#             C#
   Ontem te falei 
            G#m
Que você é tudo que eu mais quero
             B9
E o meu coração só tem lugar 
       F#       C#
Pra você, só você
              G#m
Essa mistura louca de desejo
                   B9        C#
Me perco toda vez que eu te vejo

Pré-refrão:

    D#m
Eu sei
                  A#m
Sem você não tem rima a minha canção
D#m                       A#m
    Você inspira os meus sonhos
                Am
Eu venço a solidão

 G#m
Toda vez que eu ouço a sua voz
                      A#m
Sinto o gosto do seu beijo
  B9           F#/A#
Quero ser seu mundo
         G#m
Vem com tudo
       F#          C#7(4/9)
Vem matar o meu desejo

Refrão Final:

  F#         C#      G#m
Quero mergulhar no azul desse olhar
   B9
Poder navegar
  F#        C#      G#m
Quero te dizer sem medo de amar
    B9
Eu quero você

  F#         C#      G#m
Quero mergulhar no azul desse olhar
   B9
Poder navegar
  F#        C#      G#m         B9
Quero te dizer sem medo de amar

    F#         C#       G#m
Eu quero mergulhar no azul desse olhar
   B9
Poder navegar
  F#        C#      G#m
Quero te dizer sem medo de amar
    B9
Eu quero você

  F#         C#      G#m
Quero mergulhar no azul desse olhar
   B9
Poder navegar
  F#        C#      G#m
Quero te dizer sem medo de amar

    B9             F#  C#  G#m
Eu quero você pra mim
     B9            F#  C#  G#m  B9
Eu quero você pra mim

Final:
E|-7-6h7p6----------7-6h7p6-------9-------------------|
B|---------7-9-7-6----------7-9-7---------------------|
G|----------------------------------------------------|
D|----------------------------------------------------|
A|----------------------------------------------------|
E|----------------------------------------------------|
Página 1 / 1

Letras e título
Acordes e artista

resetar configurações
OK